Tablature guitare : Weezer – Burndt Jamb

regular tuning

e--high
B
G
D
A
E--low


-Here We Go-

e--4-4-4-4-4----4-2-2-2-2-2-2-2----5-5-5-5-5----5-4-4-4-4-4-4-4----|
B--2-2-2-2-2----2-2-2-2-2-2-2-2----3-3-3-3-3----3-3-3-3-3-3-3-3----|
G--2-2-2-2-2----2-2-2-2-2-2-2-2----4-4-4-4-4----4-4-4-4-4-4-4-4----|
D------------------------------------------------------------------|
A------------------------------------------------------------------|
E------------------------------------------------------------------|

e--4-4-4-4-4----4-2-2-2-2-2-2-2----5-5-5-5-5----5-4-4-4-4-4-4-4----|
B--2-2-2-2-2----2-2-2-2-2-2-2-2----3-3-3-3-3----3-3-3-3-3-3-3-3----|
G--2-2-2-2-2----2-2-2-2-2-2-2-2----4-4-4-4-4----4-4-4-4-4-4-4-4----|
D------------------------------------------------------------------|
A------------------------------------------------------------------|
E------------------------------------------------------------------|

Gothic flavor...                          I'd be happy...
e--4-4-4-4-4--5-5-5-5-5--4-4-4-4-4--5-5-5-5-5--7-7-7-7-7--9-9-9-9-9-|
B--2-2-2-2-2--3-3-3-3-3--2-2-2-2-2--3-3-3-3-3--5-5-5-5-5--7-7-7-7-7-|
G-------------------------------------------------------------------|
D-------------------------------------------------------------------|
A-------------------------------------------------------------------|
E-------------------------------------------------------------------|

of my lifetime, I'd be there...
e--10-10-12-10-10--10-10-12-10-10-|
B--10-10-10-10-10--10-10-10-10-10-|
G--10-10-10-10-10--10-10-10-10-10-|
D---------------------------------|
A---------------------------------|
E---------------------------------|

e--4-4-4-4-4----4-2-2-2-2-2-2-2----5-5-5-5-5----5-4-4-4-4-4-4-4----|
B--2-2-2-2-2----2-2-2-2-2-2-2-2----3-3-3-3-3----3-3-3-3-3-3-3-3----|
G--2-2-2-2-2----2-2-2-2-2-2-2-2----4-4-4-4-4----4-4-4-4-4-4-4-4----|
D------------------------------------------------------------------|
A------------------------------------------------------------------|
E------------------------------------------------------------------|

 In the water...                       make me happy...
e--4-4-4-4-4--5-5-5-5-5--4-4-4-4-4--5-5-5-5-5--7-7-7-7-7--9-9-9-9-9-|
B--2-2-2-2-2--3-3-3-3-3--2-2-2-2-2--3-3-3-3-3--5-5-5-5-5--7-7-7-7-7-|
G-------------------------------------------------------------------|
D-------------------------------------------------------------------|
A-------------------------------------------------------------------|
E-------------------------------------------------------------------|

of my lifetime, I'd be there...
e--10-10-12-10-10--10-10-12-10-10-|
B--10-10-10-10-10--10-10-10-10-10-|
G--10-10-10-10-10--10-10-10-10-10-|
D---------------------------------|
A---------------------------------|
E---------------------------------|

e------------------------------------------------------------------------------|
B------------------------------------------------------------------------------|
G---------------5-7b---------------5-7b----------------5-7b---------------5-7b-|
D--7-7-5-5-7-5-7-------7-7-5-5-7-5-7-------3-7-5-5-7-5-7------5-7-5-5-7-5-7----|
A--7-------------------7-------------------3------------------5----------------|
E--5-------------------5-------------------1------------------3----------------|

e--------------------|
B--------------------|
G---------------5-7--|b
D--7-7-5-5-7-5-7-----|
A--7-----------------|
E--5-----------------|

e-------------------------------------------------------------------------------|
B-------------------------------------------------------------------------------|
G----------------5-7b---------------5-7b----------------5-7b---------------5-7--|b
D--7-7-5-5-7-5-7-------7-7-5-5-7-5-7-------3-7-5-5-7-5-7------5-7-5-5-7-5-7-----|
A--7-------------------7-------------------3------------------5-----------------|
E--5-------------------5-------------------1------------------3-----------------|

e--------------------|
B--------------------|
G---------------5-7--|b
D--7-7-5-5-7-5-7-----|
A--7-----------------|
E--5-----------------|

e--4-4-4-4-4----4-2-2-2-2-2-2-2----5-5-5-5-5----5-4-4-4-4-4-4-4----|
B--2-2-2-2-2----2-2-2-2-2-2-2-2----3-3-3-3-3----3-3-3-3-3-3-3-3----|
G--2-2-2-2-2----2-2-2-2-2-2-2-2----4-4-4-4-4----4-4-4-4-4-4-4-4----|
D------------------------------------------------------------------|
A------------------------------------------------------------------|
E------------------------------------------------------------------|

[Solo]
e---------------------------------------0---------2---------4-0-4--|
B-------------------2-2-------------------2-2p0-2---3-3p2-2--------|
G--2---2--2/4-4---------4-2-2-2-4-4p2-4----------------------------|
D----2----------2-2------------------------------------------------|
A------------------------------------------------------------------|
E------------------------------------------------------------------|

Make me happy...
e-------7-7-7-7-7--9-9-9-9-9--10-10-12-10-10--10-10-12-10-10--|
B-------5-5-5-5-5--7-7-7-7-7--10-10-10-10-10--10-10-10-10-10--|
G-----------------------------10-10-10-10-10--10-10-10-10-10--|
D-------------------------------------------------------------|
A-------------------------------------------------------------|
E-------------------------------------------------------------|

e------------------------------------------------------------------------------|
B------------------------------------------------------------------------------|
G---------------5-7b---------------5-7b----------------5-7b---------------5-7b-|
D--7-7-5-5-7-5-7-------7-7-5-5-7-5-7-------3-7-5-5-7-5-7------5-7-5-5-7-5-7----|
A--7-------------------7-------------------3------------------5----------------|
E--5-------------------5-------------------1------------------3----------------|

e--------------------|
B--------------------|
G---------------5-7--|b
D--7-7-5-5-7-5-7-----|
A--7-----------------|
E--5-----------------|

e--4-4-4-4-4----4-2-2-2-2-2-2-2----5-5-5-5-5----5-4-4-4-4-4-4-4----|
B--2-2-2-2-2----2-2-2-2-2-2-2-2----3-3-3-3-3----3-3-3-3-3-3-3-3----|
G--2-2-2-2-2----2-2-2-2-2-2-2-2----4-4-4-4-4----4-4-4-4-4-4-4-4----|
D------------------------------------------------------------------|
A------------------------------------------------------------------|
E------------------------------------------------------------------|

   Ooooooh....
e--4-4-4-4-4----4-2-2-2-2-2-2-2----5-5-5-5-5----5-4-4-4-4-4-4-4----|
B--2-2-2-2-2----2-2-2-2-2-2-2-2----3-3-3-3-3----3-3-3-3-3-3-3-3----|
G--2-2-2-2-2----2-2-2-2-2-2-2-2----4-4-4-4-4----4-4-4-4-4-4-4-4----|
D------------------------------------------------------------------|
A------------------------------------------------------------------|
E------------------------------------------------------------------|

   Ooooooh....
e--4-4-4-4-4----4-2-2-2-2-2-2-2----5-5-5-5-5----5-4-4-4-4-4-4-4----|
B--2-2-2-2-2----2-2-2-2-2-2-2-2----3-3-3-3-3----3-3-3-3-3-3-3-3----|
G--2-2-2-2-2----2-2-2-2-2-2-2-2----4-4-4-4-4----4-4-4-4-4-4-4-4----|
D------------------------------------------------------------------|
A------------------------------------------------------------------|
E------------------------------------------------------------------|

   Ooooooh....
e--4-4-4-4-4----4-2-2-2-2-2-2-2----5-5-5-5-5----5-4-4-4-4-4-4-4----|
B--2-2-2-2-2----2-2-2-2-2-2-2-2----3-3-3-3-3----3-3-3-3-3-3-3-3----|
G--2-2-2-2-2----2-2-2-2-2-2-2-2----4-4-4-4-4----4-4-4-4-4-4-4-4----|
D------------------------------------------------------------------|
A------------------------------------------------------------------|
E------------------------------------------------------------------|

e--4--------5--------4--------4-5--------5p4-4--------4h5-5--------5(let ring)--|
B--2--------3--------2----------------------------------------------------------|
G--2--------4--------2----------------------------------------------------------|
D-------------------------------------------------------------------------------|
A-------------------------------------------------------------------------------|
E-------------------------------------------------------------------------------|

END

************************************

b - bend
/ - slide
h - hammer on
p - pull off

************************************

https://tabs.ultimate-guitar.com/w/weezer/burndt_jamb_tab.htm