Tablature guitare : The Beatles – Yellow Submarine

-----------------------------------------------------------------

  THE BEATLES - YELLOW SUBMARINE (Lennon & McCartney) From REVOLVER
                album. Released on August, 5th, 1966.

  -----------------------------------------------------------------

  Tabbed by:PJVillanueva





    [Film Spoken introduction:]

    Yellow Submarine... And we would march till
    three in the day to see them gather there. From
    Land of Goats to Jonah Green we'd step in duty
    trail to see his yellow submarine. We love it




    In the town where I was born
    Lived a man who sailed to sea
    And he told us of his life
    In the land of submarines

    So we sailed up to the sun
    Till we found the sea of green
    And we lived beneath the waves
    In our yellow submarine

    We all live in a yellow submarine, 
    Yellow submarine, yellow submarine
    We all live in a yellow submarine, 
    Yellow submarine, yellow submarine

    And our friends are all aboard
    Many more of them live next door
    And the band begins to play

    We all live in a yellow submarine, 
    Yellow submarine, yellow submarine
    We all live in a yellow submarine, 
    Yellow submarine, yellow submarine

    As we live a life of ease
    Everyone of us has all we need
    Sky of blue and sea of green
    In our yellow submarine.

    We all live in a yellow submarine, 
    Yellow submarine, yellow submarine
    We all live in a yellow submarine, 
    Yellow submarine, yellow submarine

    We all live in a yellow submarine, 
    Yellow submarine, yellow submarine
    We all live in a yellow submarine, 
    Yellow submarine, yellow submarine



    The instruments were speeded down a half step, so If you want
    to play along while listening to the recording you must tune 
    your guitar a half step down.



                                   
  e|------- ------- ------- -------|------- ------- ------- -------|
  B|-------------------------------|-------------------------------|
  G|-------------------------------|-------------------------------|
  D|-------------------------------|-------------------------------|
  A|-------------------------------|-------------------------------|
  E|-------------------------------|-------------------------------|
                                                            In   the


    D                       C       G                       Em
  e|2------ ------- ------- 0------|3------ ------- ------- 0------|
  B|3-----------------------1------|3-----------------------0------|
  G|2-----------------------0------|0-----------------------0------|
  D|0-----------------------2------|0-----------------------2------|
  A|------------------------3------|2-----------------------2------|
  E|-------------------------------|3-----------------------0------|
    town                 where      born                    lived 
                            I    was                             a

    Am                      C       D                       G
  e|0------ ------- ------- 0------|2------ ------- ------- 3------|
  B|1-----------------------1------|3-----------------------3------|
  G|2-----------------------0------|2-----------------------0------|
  D|2-----------------------2------|0-----------------------0------|
  A|0-----------------------3------|------------------------2------|
  E|-------------------------------|------------------------3------|
    man                  who     to sea                     And he
                            sailed                               told


  e|2------ ------- ------- 0------|3------ ------- ------- 0------|
  B|3-----------------------1------|3-----------------------0------|
  G|2-----------------------0------|0-----------------------0------|
  D|0-----------------------2------|0-----------------------2------|
  A|------------------------3------|2-----------------------2------|
  E|-------------------------------|3-----------------------0------|
                         us of his                          in   the
                                 life


  e|0------ ------- ------- 0------|2------ ------- ------- 3------|
  B|1-----------------------1------|3-----------------------3------|
  G|2-----------------------0------|2-----------------------0------|
  D|2-----------------------2------|0-----------------------0------|
  A|0-----------------------3------|------------------------2------|
  E|-------------------------------|------------------------3------|
    land                 of submarines                      So   we


    00:19

  e|2----2- 2----2- 2----2- 0----0-|3----3- 3----3- 3----3- 0----0-|
  B|3----3--3----3--3----3--1----1-|3----3--3----3--3----3--0----0-|
  G|2----2--2----2--2----2--0----0-|0----0--0----0--0----0--0----0-|
  D|0----0--0----0--0----0--2----2-|0----0--0----0--0----0--2----2-|
  A|------------------------3----3-|2----2--2----2--2----2--2----2-|
  E|-------------------------------|3----3--3----3--3----3--0----0-|
    sailed               up to   the                        till we
                                    sun


  e|0----0- 0----0- 0----0- 0----0-|2----2- 2----2- 2----2- 3----3-|
  B|1----1--1----1--1----1--1----1-|3----3--3----3--3----3--3----3-|
  G|2----2--2----2--2----2--0----0-|2----2--2----2--2----2--0----0-|
  D|2----2--2----2--2----2--2----2-|0----0--0----0--0----0--0----0-|
  A|0----0--0----0--0----0--3----3-|------------------------2----2-|
  E|-------------------------------|------------------------3----3-|
    found                the   of                          And  we
                            sea  green


  e|2----2- 2----2- 2----2- 0----0-|3----3- 3----3- 3----3- 0----0-|
  B|3----3--3----3--3----3--1----1-|3----3--3----3--3----3--0----0-|
  G|2----2--2----2--2----2--0----0-|0----0--0----0--0----0--0----0-|
  D|0----0--0----0--0----0--2----2-|0----0--0----0--0----0--2----2-|
  A|------------------------3----3-|2----2--2----2--2----2--2----2-|
  E|-------------------------------|3----3--3----3--3----3--0----0-|
    lived                beneath the                        in our
                                    waves


  e|0----0- 0----0- 0----0- 0----0-|2----2- 2----2- 2----2- 2----2-|
  B|1----1--1----1--1----1--1----1-|3----3--3----3--3----3--3----3-|
  G|2----2--2----2--2----2--0----0-|2----2--2----2--2----2--2----2-|
  D|2----2--2----2--2----2--2----2-|0----0--0----0--0----0--0----0-|
  A|0----0--0----0--0----0--3----3-|-------------------------------|
  E|-------------------------------|-------------------------------|
    yellow                  submarine


    00:37

  e|3------ 3----3- 3----3- 3----3-|2----2- 2------ 2----2- 2----2-|
  B|3-------3----3--3----3--3----3-|3----3--3-------3----3--3----3-|
  G|0-------0----0--0----0--0----0-|2----2--2-------2----2--2----2-|
  D|0-------0----0--0----0--0----0-|0----0--0-------0----0--0----0-|
  A|2-------2----2--2----2--2----2-|-------------------------------|
  E|3-------3----3--3----3--3----3-|-------------------------------|
    We      all     live    in   a  yellow  submarine



  e|2------ 2------ 2----2- 2----2-|3------ 3------ 3----3- 3----3-|
  B|3-------3-------3----3--3----3-|3-------3-------3----3--3----3-|
  G|2-------2-------2----2--2----2-|0-------0-------0----0--0----0-|
  D|0-------0-------0----0--0----0-|0-------0-------0----0--0----0-|
  A|-------------------------------|2-------2-------2----2--2----2-|
  E|-------------------------------|3-------3-------3----3--3----3-|   
    yellow  submarine               yellow  submarine



  e|3------ 3------ 3----3- 3----3-|2----2- 2------ 2----2- 2----2-|
  B|3-------3-------3----3--3----3-|3----3--3-------3----3--3----3-|
  G|0-------0-------0----0--0----0-|2----2--2-------2----2--2----2-|
  D|0-------0-------0----0--0----0-|0----0--0-------0----0--0----0-|
  A|2-------2-------2----2--2----2-|-------------------------------|
  E|3-------3-------3----3--3----3-|-------------------------------|
    We      all     live    in   a  yellow  submarine



  e|2----2- 2------ 2------ 2----2-|3------ 3------ 3----3- 3------|
  B|3----3--3-------3-------3----3-|3-------3-------3----3--3------|
  G|2----2--2-------2-------2----2-|0-------0-------0----0--0------|
  D|0----0--0-------0-------0----0-|0-------0-------0----0--0------|
  A|-------------------------------|2-------2-------2----2--2------|
  E|-------------------------------|3-------3-------3----3--3------|
    yellow  submarine               yellow  submarine       And our
                                                                 friends

    00:54

  e|2------ ------- ------- 0------|3------ ------- ------- 0------|
  B|3-----------------------1------|3-----------------------0------|
  G|2-----------------------0------|0-----------------------0------|
  D|0-----------------------2------|0-----------------------2------|
  A|------------------------3------|2-----------------------2------|
  E|-------------------------------|3-----------------------0------|
                         are     aboard                     many
                            all


  e|0------ ------- ------- 0------|2------ ------- ------- 3------|
  B|1-----------------------1------|3-----------------------3------|
  G|2-----------------------0------|2-----------------------0------|
  D|2-----------------------2------|0-----------------------0------|
  A|0-----------------------3------|------------------------2------|
  E|-------------------------------|------------------------3------|
    more of them            live next                       And  the
                                    door

                                                            01:07

  e|2------ ------- ------- 0------|3------ ------- ------- 2------|
  B|3-----------------------1------|3-----------------------3------|
  G|2-----------------------0------|0-----------------------2------|
  D|0-----------------------2------|0-----------------------0------|
  A|------------------------3------|2------------------------------|
  E|-------------------------------|3------------------------------|
    band                 begins  to play


   

  e|2------ ------- ------- 3------|2------ ------- ------- 3------|
  B|3-----------------------3------|3-----------------------3------|
  G|2-----------------------0------|2-----------------------0------|
  D|0-----------------------0------|0-----------------------0------|
  A|------------------------2------|------------------------2------|
  E|------------------------3------|------------------------3------|

    John used the wrong chords on these last three measures, leading
    to the chorus in a somewhat forced manner, although masked by the 
    raucous, recorded marching brass interlude in G.

    

    01:11
    We all live in a yellow submarine, 
    Yellow submarine, yellow submarine
    We all live in a yellow submarine, 
    Yellow submarine, yellow submarine
 
    01:29
    "ON BOARD" SOUND EFFECTS FRAGMENT:
    I suppose no one could be quite sure about what John and Paul
    are meant to be saying here (probably it's some meaningles 
    kind of sea chatter). I'd venture to say it might be something 
    like:


    "Full speed ahead, Mr Boatswain,
     Full speed ahead!"
    "Full speed itteereet is, Sgt!"                   
    "Cut the cable! Drop the cable!"
    "Aye, sir, fire!"
    "Keep it! Keep it!"

          01:46
    As we live a life of ease
    Everyone of us has all we need
    Sky of blue and sea of green
    In our yellow submarine.

    02:04
    We all live in a yellow submarine, 
    A yellow submarine, yellow submarine
    We all live in a yellow submarine, 
    A yellow submarine, yellow submarine

    We all live in a yellow submarine, 
    Yellow submarine, yellow submarine
    We all live in a yellow submarine, 
    Yellow submarine, yellow submarine






        B  Bend
        R  Release
        /  Slide up
        \  Slide down
        H  Hammer-on
        P  Pull-off
        ~  Vibrato
        +  Harmonic
        x  Mute note
        .  Play note like a dot in standard notation
        ^  Ties two notes together
        (. Pause

https://tabs.ultimate-guitar.com/t/the_beatles/yellow_submarine_ver5_tab.htm