Tablature guitare : The Beatles – Norwegian Wood

Okay, please don't be too harsh, this is my first tab, and unfortunately, this is my
second time typing it >_< I made it to the last line, and accidentally X'ed out of UG!
But now I'm MUCH faster at typing it! 😀

So, I learned this from my guitar teacher, and I wanted a tab to show everyone how he
and I play it 🙂

-------------------------------|
----CAPO ON THE SECOND FRET----|
-------------------------------|

And the chord strums are always (D, D, U, D, U)

And for the verse I know like everyone just mainly plays the Dm and then the
G, or Em. But my teacher taught me a different way so it's not too repetitive, and it
fits good 🙂


[Intro]

   D                    E/G#                D               G   D
e--2--2-2-2-2-----------2--2-2-2-2----------2--2-2-2-2------3---2--2--2-2-2-|
B--3--3-3-3-3-----------3--3-3-3-3----------3--3-3-3-3------3---3--3--3-3-3-|
G--2--2-2-2-2--4-2-0----2--2-2-2-2----0-----2--2-2-2-2------0---2--2--2-2-2-|
D--0--0-0-0-0--------4--4--4-4-4-4--2---4-0-0--0-0-0-0----------0--0--0-0-0-|
A-------------------------------------------------------2/3---2-------------|
E---------------------------------------------------------------------------|

   D                    E/G#                D               G   D
e--2--2-2-2-2-----------2--2-2-2-2----------2--2-2-2-2------3---2--2--2-2-2-|
B--3--3-3-3-3-----------3--3-3-3-3----------3--3-3-3-3------3---3--3--3-3-3-|
G--2--2-2-2-2--4-2-0----2--2-2-2-2----0-----2--2-2-2-2------0---2--2--2-2-2-|
D--0--0-0-0-0--------4--4--4-4-4-4--2---4-0-0--0-0-0-0----------0--0--0-0-0-|
A-------------------------------------------------------2/3---2-------------|
E---------------------------------------------------------------------------|


[Verse]

   I           Once had a girl     or should I say    she once had me.
   D                    E/G#                D               G   D
e--2--2-2-2-2-----------2--2-2-2-2----------2--2-2-2-2------3---2--2--2-2-2-|
B--3--3-3-3-3-----------3--3-3-3-3----------3--3-3-3-3------3---3--3--3-3-3-|
G--2--2-2-2-2--4-2-0----2--2-2-2-2----0-----2--2-2-2-2------0---2--2--2-2-2-|
D--0--0-0-0-0--------4--4--4-4-4-4--2---4-0-0--0-0-0-0----------0--0--0-0-0-|
A-------------------------------------------------------2/3---2-------------|
E---------------------------------------------------------------------------|

   She       showed me her room,  isn't it good,       Norwegian Wood.
   D                    E/G#                D               G   D
e--2--2-2-2-2-----------2--2-2-2-2----------2--2-2-2-2------3---2--2--2-2-2-|
B--3--3-3-3-3-----------3--3-3-3-3----------3--3-3-3-3------3---3--3--3-3-3-|
G--2--2-2-2-2--4-2-0----2--2-2-2-2----0-----2--2-2-2-2------0---2--2--2-2-2-|
D--0--0-0-0-0--------4--4--4-4-4-4--2---4-0-0--0-0-0-0----------0--0--0-0-0-|
A-------------------------------------------------------2/3---2-------------|
E---------------------------------------------------------------------------|


[Chorus]

She asked me to stay and she told me to sit any    where.
   Dm          Baug        G/B         Bsus2/5+    G           G
e--1--1-1-1-1--1--1-1-1-1--1--1-1-1-1--1--1-1-1-1--3--3-3-3-3--3--3-3-3-3-|
B--3--3-3-3-3--2--2-2-2-2--1--1-1-1-1--0--0-0-0-0--3--3-3-3-3--3--3-3-3-3-|
G--2--2-2-2-2--2--2-2-2-2--2--2-2-2-2--2--2-2-2-2--0--0-0-0-0--0--0-0-0-0-|
D--0--0-0-0-0--0--0-0-0-0--0--0-0-0-0--0--0-0-0-0--0--0-0-0-0--0--0-0-0-0-|
A--------------------------------------------------2--2-2-2-2--2--2-2-2-2-|
E--------------------------------------------------3-----------3----------|

   G           G
e--3--3-3-3-3--3--3-3-3-3-|
B--3--3-3-3-3--3--3-3-3-3-|
G--0--0-0-0-0--0--0-0-0-0-|
D--0--0-0-0-0--0--0-0-0-0-|
A--2--2-2-2-2--2--2-2-2-2-|
E--3-----------3----------|

So I looked around and I noticed there wasn't even a chair
   Dm          Baug        G/B         Bsus2/5+    Em7         Em7
e--1--1-1-1-1--1--1-1-1-1--1--1-1-1-1--1--1-1-1-1--0--0-0-0-0--0--0-0-0-0-|
B--3--3-3-3-3--2--2-2-2-2--1--1-1-1-1--0--0-0-0-0--3--3-3-3-3--3--3-3-3-3-|
G--2--2-2-2-2--2--2-2-2-2--2--2-2-2-2--2--2-2-2-2--0--0-0-0-0--0--0-0-0-0-|
D--0--0-0-0-0--0--0-0-0-0--0--0-0-0-0--0--0-0-0-0--2--2-2-2-2--2--2-2-2-2-|
A--------------------------------------------------2--2-2-2-2--2--2-2-2-2-|
E--------------------------------------------------0-----------0----------|

   A           A
e--0--0-0-0-0--0--0-0-0-0-|
B--2--2-2-2-2--2--2-2-2-2-|
G--2--2-2-2-2--2--2-2-2-2-|
D--2--2-2-2-2--2--2-2-2-2-|
A--0-----------0----------|
E-------------------------|


[Verse]

   I          sat on a rug,       biding my time,     drinking her wine.
   D                    E/G#                D               G   D
e--2--2-2-2-2-----------2--2-2-2-2----------2--2-2-2-2------3---2--2--2-2-2-|
B--3--3-3-3-3-----------3--3-3-3-3----------3--3-3-3-3------3---3--3--3-3-3-|
G--2--2-2-2-2--4-2-0----2--2-2-2-2----0-----2--2-2-2-2------0---2--2--2-2-2-|
D--0--0-0-0-0--------4--4--4-4-4-4--2---4-0-0--0-0-0-0----------0--0--0-0-0-|
A-------------------------------------------------------2/3---2-------------|
E---------------------------------------------------------------------------|

 We         talked until two     and then she said,   "It's time for bed."
   D                    E/G#                D               G   D
e--2--2-2-2-2-----------2--2-2-2-2----------2--2-2-2-2------3---2--2--2-2-2-|
B--3--3-3-3-3-----------3--3-3-3-3----------3--3-3-3-3------3---3--3--3-3-3-|
G--2--2-2-2-2--4-2-0----2--2-2-2-2----0-----2--2-2-2-2------0---2--2--2-2-2-|
D--0--0-0-0-0--------4--4--4-4-4-4--2---4-0-0--0-0-0-0----------0--0--0-0-0-|
A-------------------------------------------------------2/3---2-------------|
E---------------------------------------------------------------------------|


[SLIGHT FILL]

  D                    E/G#                D               G   D
e--2--2-2-2-2-----------2--2-2-2-2----------2--2-2-2-2------3---2--2--2-2-2-|
B--3--3-3-3-3-----------3--3-3-3-3----------3--3-3-3-3------3---3--3--3-3-3-|
G--2--2-2-2-2--4-2-0----2--2-2-2-2----0-----2--2-2-2-2------0---2--2--2-2-2-|
D--0--0-0-0-0--------4--4--4-4-4-4--2---4-0-0--0-0-0-0----------0--0--0-0-0-|
A-------------------------------------------------------2/3---2-------------|
E---------------------------------------------------------------------------|

  D                    E/G#                D               G   D
e--2--2-2-2-2-----------2--2-2-2-2----------2--2-2-2-2------3---2--2--2-2-2-|
B--3--3-3-3-3-----------3--3-3-3-3----------3--3-3-3-3------3---3--3--3-3-3-|
G--2--2-2-2-2--4-2-0----2--2-2-2-2----0-----2--2-2-2-2------0---2--2--2-2-2-|
D--0--0-0-0-0--------4--4--4-4-4-4--2---4-0-0--0-0-0-0----------0--0--0-0-0-|
A-------------------------------------------------------2/3---2-------------|
E---------------------------------------------------------------------------|


[Chorus]

She told me she worked in the morning and started to laugh.
   Dm          Baug        G/B         Bsus2/5+    G           G
e--1--1-1-1-1--1--1-1-1-1--1--1-1-1-1--1--1-1-1-1--3--3-3-3-3--3--3-3-3-3-|
B--3--3-3-3-3--2--2-2-2-2--1--1-1-1-1--0--0-0-0-0--3--3-3-3-3--3--3-3-3-3-|
G--2--2-2-2-2--2--2-2-2-2--2--2-2-2-2--2--2-2-2-2--0--0-0-0-0--0--0-0-0-0-|
D--0--0-0-0-0--0--0-0-0-0--0--0-0-0-0--0--0-0-0-0--0--0-0-0-0--0--0-0-0-0-|
A--------------------------------------------------2--2-2-2-2--2--2-2-2-2-|
E--------------------------------------------------3-----------3----------|

   G           G
e--3--3-3-3-3--3--3-3-3-3-|
B--3--3-3-3-3--3--3-3-3-3-|
G--0--0-0-0-0--0--0-0-0-0-|
D--0--0-0-0-0--0--0-0-0-0-|
A--2--2-2-2-2--2--2-2-2-2-|
E--3-----------3----------|

I told her I didn't and crawled off to sleep in the bath.
   Dm          Baug        G/B         Bsus2/5+    Em7          Em7
e--1--1-1-1-1--1--1-1-1-1--1--1-1-1-1--1--1-1-1-1--0--0-0-0-0--0--0-0-0-0-|
B--3--3-3-3-3--2--2-2-2-2--1--1-1-1-1--0--0-0-0-0--3--3-3-3-3--3--3-3-3-3-|
G--2--2-2-2-2--2--2-2-2-2--2--2-2-2-2--2--2-2-2-2--0--0-0-0-0--0--0-0-0-0-|
D--0--0-0-0-0--0--0-0-0-0--0--0-0-0-0--0--0-0-0-0--2--2-2-2-2--2--2-2-2-2-|
A--------------------------------------------------2--2-2-2-2--2--2-2-2-2-|
E--------------------------------------------------0-----------0----------|

   A           A
e--0--0-0-0-0--0--0-0-0-0-|
B--2--2-2-2-2--2--2-2-2-2-|
G--2--2-2-2-2--2--2-2-2-2-|
D--2--2-2-2-2--2--2-2-2-2-|
A--0-----------0----------|
E-------------------------|


[Verse]

  And         Then I awoke,        I was alone,        This bird had flown.
   D                    E/G#                D               G   D
e--2--2-2-2-2-----------2--2-2-2-2----------2--2-2-2-2------3---2--2--2-2-2-|
B--3--3-3-3-3-----------3--3-3-3-3----------3--3-3-3-3------3---3--3--3-3-3-|
G--2--2-2-2-2--4-2-0----2--2-2-2-2----0-----2--2-2-2-2------0---2--2--2-2-2-|
D--0--0-0-0-0--------4--4--4-4-4-4--2---4-0-0--0-0-0-0----------0--0--0-0-0-|
A-------------------------------------------------------2/3---2-------------|
E---------------------------------------------------------------------------|

   So        I lit a fire,        isn't it good,       Norwegian Wood.
   D                    E/G#                D               G   D
e--2--2-2-2-2-----------2--2-2-2-2----------2--2-2-2-2------3---2--2--2-2-2-|
B--3--3-3-3-3-----------3--3-3-3-3----------3--3-3-3-3------3---3--3--3-3-3-|
G--2--2-2-2-2--4-2-0----2--2-2-2-2----0-----2--2-2-2-2------0---2--2--2-2-2-|
D--0--0-0-0-0--------4--4--4-4-4-4--2---4-0-0--0-0-0-0----------0--0--0-0-0-|
A-------------------------------------------------------2/3---2-------------|
E---------------------------------------------------------------------------|


[Outro]

  D                    E/G#                D               G   D
e--2--2-2-2-2-----------2--2-2-2-2----------2--2-2-2-2------3---2--2--2-2-2-|
B--3--3-3-3-3-----------3--3-3-3-3----------3--3-3-3-3------3---3--3--3-3-3-|
G--2--2-2-2-2--4-2-0----2--2-2-2-2----0-----2--2-2-2-2------0---2--2--2-2-2-|
D--0--0-0-0-0--------4--4--4-4-4-4--2---4-0-0--0-0-0-0----------0--0--0-0-0-|
A-------------------------------------------------------2/3---2-------------|
E---------------------------------------------------------------------------|



************************************

| /  Slide up

************************************

The G/B you put in refrain is actually a D7, and Bsus2/5+ is just a Dm6...I don't mean to cause any offense but I really hate when someone messes up with chords names because that's how you learn it wrong 🙂

https://tabs.ultimate-guitar.com/t/the_beatles/norwegian_wood_ver7_tab.htm