Tablature guitare : The Beatles – And Your Bird Can Sing

Song: And Your Bird Can Sing
Artist: The Beatles
Album: Revolver
Tabbed by SPENCER LARSEN
**check out some of my songs on my profile**
            
[Intro] 
(Third guitar strums E-F#m-A-E)

e|------------------------------------------------------------|
B|---5-4-2-4-2---2-----------------5-5--5b6---------5--2-0----|
G|-------------4---4-2-1-------1-2----------4-1-2-4--------1--| Guitar 1
D|-----------------------4-2-4--------------------------------|
A|------------------------------------------------------------|
E|-0----------------------------------------------------------|


e|-------------------------------------------------------------|
B|---9-7---7--------------------------9-9--9b10-------9--------|
G|-------9---9-8-9-8----------------------------9----9--11-9---| Guitar 2
D|-------------------11-9---------9-11-----------9-11-------9--|
A|------------------------12-11-12-----------------------------|
E|-0-----------------------------------------------------------|


[Verse 1]

E
You tell me that you've got everything you want

And your bird can sing
                  F#m  A
But you don't get me
              E
You don't get me


[Guitar riff/Fill]
(E is strummed during fill)

e|---------------|
B|--------9------|
G|------9--11-9--| Guitar 1
D|-9-11--------9-|
A|---------------|
E|---------------|

e|---------------|
B|-------5-2-0---|
G|-1-2-4------1--| Guitar 2
D|---------------|
A|---------------|
E|---------------|


[Verse 2]

E
You say you've seen seven wonders 

And your bird is green 
                  F#m  A
But you can't see me
              E
You can't see me


[Guitar riff/Fill] 
(E is strummed during fill) 

e|---------------|
B|--------9------|
G|------9--11-9--| Guitar 1
D|-9-11--------9-|
A|---------------|
E|---------------|

e|---------------|
B|-------5-2-0---|
G|-1-2-4------1--| Guitar 2
D|---------------|
A|---------------|
E|---------------|


[Chorus]

e|---------------------------------------------------------|
B|-------4-------------4-------------4-------------2-------|
G|-1-3-4---4-3-1-1-3-4---4-3-1-1-3-4---4-3-1-1-3-4---1-----| Guitar 1
D|-----------------------------------------------------3---|
A|-------------------------------------------------------4-|
E|---------------------------------------------------------|

e|-------4------------3-------------2-------------1--------|
B|---2-4---4-2----2-4---4-2-----2-4---4-2-----2-4---2------|
G|-4----------4-4-----------4-4-----------4-4---------1----| Guitar 2
D|------------------------------------------------------3--|
A|---------------------------------------------------------|
E|---------------------------------------------------------|

e|----------------------------------------------------------|
B|-------0-------------2-------------2-------------4--------|
G|-----1---1---------2---2---------2---2---------4---4------| Guitar 1
D|---2-------2-----4-------4-----4-------4-----4-------4----|
A|-2-----------2-4-----------4-4-----------4-2-----------2--|
E|----------------------------------------------------------|

e|-------0-------------2-------------2-------------2--------|
B|-----0---0---------2---2---------2---2---------4---4------|
G|---1-------1-----2-------2-----2-------2-----4-------4----| Guitar 2
D|-2-----------2-4-----------4-4-----------4-4-----------2--|
A|----------------------------------------------------------|
E|----------------------------------------------------------|


[Main riff]
(E-F#m-A-E strummed during main riff)

e|------------------------------------------------------------|
B|---5-4-2-4-2---2-----------------5-5--5b6---------5--2-0----|
G|-------------4---4-2-1-------1-2----------4-1-2-4--------1--| Guitar 1
D|-----------------------4-2-4--------------------------------|
A|------------------------------------------------------------|
E|-0----------------------------------------------------------|

e|-------------------------------------------------------------|
B|---9-7---7--------------------------9-9--9b10-------9--------|
G|-------9---9-8-9-8----------------------------9----9--11-9---| Guitar 2
D|-------------------11-9---------9-11-----------9-11-------9--|
A|------------------------12-11-12-----------------------------|
E|-0-----------------------------------------------------------|

e|----------------------------------2---4--4--4b5----0-----|
B|------2-4--2----------------2-4-5--------------------0---|
G|-2-4---------4-2-1---1-2-4-----------------------------1-| Guitar 1
D|-------------------4-------------------------------------|
A|---------------------------------------------------------|
E|---------------------------------------------------------|

e|--------7---------------------7-9-11-12-12-12b14---------|
B|-7-9-10---10-9-7-------7-9-10---------------------12-9---|
G|-----------------9-8-9---------------------------------9-| Guitar 2
D|---------------------------------------------------------|
A|---------------------------------------------------------|
E|---------------------------------------------------------|


[Chorus]

e|---------------------------------------------------------|
B|-------4-------------4-------------4-------------2-------|
G|-1-3-4---4-3-1-1-3-4---4-3-1-1-3-4---4-3-1-1-3-4---1-----| Guitar 1
D|-----------------------------------------------------3---|
A|-------------------------------------------------------4-|
E|---------------------------------------------------------|

e|-------4------------3-------------2-------------1--------|
B|---2-4---4-2----2-4---4-2-----2-4---4-2-----2-4---2------|
G|-4----------4-4-----------4-4-----------4-4---------1----| Guitar 2
D|------------------------------------------------------3--|
A|---------------------------------------------------------|
E|---------------------------------------------------------|

e|----------------------------------------------------------|
B|-------0-------------2-------------2-------------4--------|
G|-----1---1---------2---2---------2---2---------4---4------| Guitar 1
D|---2-------2-----4-------4-----4-------4-----4-------4----|
A|-2-----------2-4-----------4-4-----------4-2-----------2--|
E|----------------------------------------------------------|

e|-------0-------------2-------------2-------------2--------|
B|-----0---0---------2---2---------2---2---------4---4------|
G|---1-------1-----2-------2-----2-------2-----4-------4----| Guitar 2
D|-2-----------2-4-----------4-4-----------4-4-----------2--|
A|----------------------------------------------------------|
E|----------------------------------------------------------|


[Verse 3]

E
You tell me that you heard every sound there is 

And your bird can swing 
                   F#m  A
But you can't hear me
               E
You can't hear me


[Main riff]
(E-F#m-A-E strummed during main riff)

e|------------------------------------------------------------|
B|---5-4-2-4-2---2-----------------5-5--5b6---------5--2-0----|
G|-------------4---4-2-1-------1-2----------4-1-2-4--------1--| Guitar 1
D|-----------------------4-2-4--------------------------------|
A|------------------------------------------------------------|
E|-0----------------------------------------------------------|

e|-------------------------------------------------------------|
B|---9-7---7--------------------------9-9--9b10-------9--------|
G|-------9---9-8-9-8----------------------------9----9--11-9---| Guitar 2
D|-------------------11-9---------9-11-----------9-11-------9--|
A|------------------------12-11-12-----------------------------|
E|-0-----------------------------------------------------------|

e|----------------------------------2---4--4--4b5----0-----|
B|------2-4--2----------------2-4-5--------------------0---|
G|-2-4---------4-2-1---1-2-4-----------------------------1-| Guitar 1
D|-------------------4-------------------------------------|
A|---------------------------------------------------------|
E|---------------------------------------------------------|

e|--------7---------------------7-9-11-12-12-12b14---------|
B|-7-9-10---10-9-7-------7-9-10---------------------12-9---|
G|-----------------9-8-9---------------------------------9-| Guitar 2
D|---------------------------------------------------------|
A|---------------------------------------------------------|
E|---------------------------------------------------------|


[Outro]
(E strummed during outro and end on A)

e|----------------------------------------------------|
B|---5-4-2-4-2---2----5-4-2-4-2---2---5-4-2-4-2---2---|
G|-------------4----------------4---------------4---2-| Guitar 1
D|----------------------------------------------------|
A|----------------------------------------------------|
E|-0----------------0---------------0-----------------|

e|----------------------------------------------------|
B|---9-7---7----------9-7---7---------9-7---7---------|
G|-------9---9-8-9--------9---9-8-9-------9---9-8-9---| Guitar 2
D|--------------------------------------------------7-|
A|----------------------------------------------------|
E|-0----------------0---------------0-----------------|



************************************

| b  Bend

************************************

 there's actually an easier way to play it, in my opinion

-------------------------
-9-7---7-----------------
-----9---9-8-9-8-6-------
------------------9-7-6--
-------------------------
-------------------------

this way you don't move around

https://tabs.ultimate-guitar.com/t/the_beatles/and_your_bird_can_sing_ver6_tab.htm