Tablature guitare : Weezer – Tired Of Sex

Tired of Sex
as performed by Weezer
Words and Music by Rivers Cuomo

4/4 Time
All strings tuned down one half step
(All chords relative to standard tuning)

[Intro]
3 measures of feedback
4 measures of drums and keyboard
bass enters in 2/4 time
3 more 4/4 measures

     N.C.
eb||-------------------------|------------------------|
Bb||----------------------10-p-8----------------------|
F#||-------------------------|------------------------|
C#||-------------------------|------------------------|
Ab||-------------------------|------------------------|
Eb||-------------------------|------------------------|
                                   I'm tired,

so tired.
             G/D
eb|-------------------------|
Bb|----------0--------------|
F#|----------0--------------|
C#|----------0--------------|
Ab|-------------------------|
Eb|-------------------------|
          I'm tired of

having sex. (So tired.)

          D5
eb|-------------------------|
Bb|-------------------------|
F#|-------7-----------------|
C#|-------7-----------------|
Ab|-------------------------|
Eb|-------------------------|
          I'm spread

so thin

    N.C.
eb|-------------------------|-------------------------|
Bb|-------------------------|-------------------------|
F#|------------------T19----|-------------------------|
C#|------------------T19----|-T4(16)------4-----------|
Ab|-------------------------|-------------------------|
Eb|-------------------------|-------------------------|
                                    I     don't  know

who I am. (Who I am.)

    N.C.
eb|-------------------------|
Bb|-------------------------|
F#|-------------------------|
C#|-5p4~~~~~~~~~~~~~~~~~~~~-|
Ab|-------------------------|
Eb|-------------------------|
    Oh.

[Chorus]
    N.C.
eb|-------------------------|-------------------------|
Bb|-------------------------|-x-----------------------|
F#|-5*----------------------|-------------------------|
C#|-------------------------|-------------------------|
Ab|-------------------------|-------------------------|
Eb|-------------------------|-------------------------|
    Mon  -  day  night  I'm   making Jen.

    N.C.
eb|-x-----------x--------x--|-x---------x--x----------|
Bb|-------------------------|-------------------------|
F#|----------x--------------|-------------------------|
C#|-------------------------|-------------------------|
Ab|-------------------------|-------------------------|
Eb|-------------------------|-------------------------|
    Tues  -  day night I'm    making Lynn.

    N.C.
eb|-------------------------|-------------------------|
Bb|-0-----------------------|-------------------------|
F#|-------------------------|-0-----------------------|
C#|-------------------------|-------------------------|
Ab|-------------------------|-------------------------|
Eb|-------------------------|-------------------------|
    Wednes - day night I'm    making Cather - ine. Oh,

why can't I be making love come

eb|-------------------------|
Bb|-------------------------|
F#|-------------------------|
C#|-------------------------|
Ab|-------------------------|
Eb|-------------x///ps\\\x--|
    true?

[Interlude]
    G5          D5            D5 E5 D5 C5 B5
eb|-------------------------|-------------------------|
Bb|-------------------------|-------------------------|
F#|-------------7-----7-----|-7--9--7--5--4-----4-----|
C#|-5-----5-----7-----7-----|-7--9--7--5--4-----4-----|
Ab|-5-----5-----5-----5-----|-5--7--5--3--2-----2-----|
Eb|-3-----3-----5-----5-----|-5--7--5--3--2-----2-----|
          Whoa.

G5  D5  D5 E5 D5 C5 B5
Whoa.

[Verse]

G5  D5  D5 E5 D5 C5 B5
I'm beat,
G5   D5  D5 E5 D5 C5 B5
beet red,
G5   D5    D5 E5 D5 C5 B5
ashamed of what          I
G5            D5    D5 E5 D5 C5 B5
said. (What I said.)             Oh.

G5  D5    D5 E5 D5 C5 B5
I'm sorry, 
G5     D5  D5 E5 D5 C5 B5
here I go.              I
G5         D5           D5 E5 D5 C5 B5
know I'm a sinner but I can't         say
G5       D5  D5 E5 D5 C5 B5
no. (Say no.)         Whoa.

[Chorus]
    G5          C5            D5          E5
eb|-------------------------|-------------------------|
Bb|-------------------------|-------------------------|
F#|-------------5--5--5--5--|-7--7--7--7--9--9--9--9--|
C#|-5--5--5--5--5--5--5--5--|-7--7--7--7--9--9--9--9--|
Ab|-5--5--5--5--3--3--3--3--|-5--5--5--5--7--7--7--7--|
Eb|-3--3--3--3--3--3--3--3--|-5--5--5--5--7--7--7--7--|
    Thurs-day   night I'm     making Denise.

G5     C5        D5     E5
Friday night I'm making Sharise.
G5       C5        D5     E5
Saturday night I'm making Louise. So

    F5                        C5          G/B
eb|-------------------------|-------------------------|
Bb|-------------------------|-------------------------|
F#|-10-10-10-10-10-10-10-10-|-------------------------|
C#|-10-10-10-10-10-10-10-10-|-10-10-10-10-------------|
Ab|-8--8--8--8--8--8--8--8--|-10-10-10-10-10-10-10-10-|
Eb|-8--8--8--8--8--8--8--8--|-8--8--8--8--7--7--7--7--|
    why   can't I     be      mak    -    ing

    A5
eb|-------------------------|-------------------------|
Bb|-------------------------|-------------------------|
F#|-------------------------|-------------------------|
C#|-7--7--7--7--7--7--7--7--|-7--7--7--7--7--7--------|
Ab|-7--7--7--7--7--7--7--7--|-7--7--7--7--7--7--10\\\-|
Eb|-5--5--5--5--5--5--5--5--|-5--5--5--5--5--5--10\\\-|
    love        come          true?      (What's a guy to

[Guitar Solo]
    G5              D5                D5  E5  D5  C5  B5                       
eb|---------------------------------|---------------------------------|
Bb|---------12------p10-12p10-12~~~-|-p10-12p10-12~~~~-p10-12p10-12~~-|
F#|---------------------------------|---------------------------------|
C#|---------------------------------|---------------------------------|
Ab|\7//////-------------------------|---------------------------------|
Eb|\7//////-------------------------|---------------------------------|
   do?)

    G5              D5
eb|-----------------------------------------|
Bb|-----15b-----15--12-15-12----------------|
F#|--------------------------15-14-12-14-15-|
C#|-----------------------------------------|
Ab|-----------------------------------------|
Eb|-----------------------------------------|

    D5    E5   D5    C5    B5
eb|--------------------------------------------|
Bb|--------------------------------------------|
F#|-14-12------14-12-------14-12------12~~~----|
C#|-------14---------14-12-------14------------|
Ab|--------------------------------------------|
Eb|--------------------------------------------|

    G5                   D5
eb|-15-15-15-15/17-17-17-17/19-19-19-19-19-19-19-|
Bb|-x--x--x--x-/---x--x--x-/---x--x--x--x--x--x--|
F#|-12-12-12-12/14-14-14-14/16-16-16-16-16-16-16-|
C#|----------------------------------------------|
Ab|----------------------------------------------|
Eb|----------------------------------------------|

    D5    E5    D5    C5    B5
eb|-19/20-20-20-20-20-20-------22b-b---b\\\\\\\\-|
Bb|-------x--x--x--x--x--------------------------|
F#|-16/17-17-17-17-17-17-------------------------|
C#|----------------------------------------------|
Ab|----------------------------------------------|
Eb|----------------------------------------------|

    G5                             D5
eb|\0----------h24-h24-h26-h26-h26-h26-h26-h26-h24-h22-h19-h15-h15-|
Bb|----------------------------------------------------------------|
F#|----------------------------------------------------------------|
C#|----------------------------------------------------------------|
Ab|----------------------------------------------------------------|
Eb|----------------------------------------------------------------|

    D5      E5     D5    C5    B5
eb|-22b---------22------------------------------------------|
Bb|----------------22p20-22p20-22b~~~~~~~~~~~~-\\\\\\\\\\\\-|
F#|---------------------------------------------------------|
C#|---------------------------------------------------------|
Ab|---------------------------------------------------------|
Eb|---------------------------------------------------------|
                               Whoa.

[Bridge]
G5     C5   D5         E5
Tonight I'm down on my knees.
G5     C5   D5          E5
Tonight I'm beggin' you please.
G5     C5       D5     E5
Tonight, tonight please. So

    F5                        C5          G/B
eb|-------------------------|-------------------------|
Bb|-------------------------|-------------------------|
F#|-10----10----10----10----|-------------------------|
C#|-10----10----10----10----|-10----------------------|
Ab|-8-----8-----8-----8-----|-10----------10----------|
Eb|-------------------------|-8-----------7-----------|
    why   can't I     be      mak    -    ing

    G5          E5            Am
eb|-------------------------|-------------------------|
Bb|-------------------------|-------------------------|
F#|-------------------------|-2-----------------------|
C#|-5-----------2-----------|-2-----------------------|
Ab|-5-----------2-----------|-0-----------------------|
Eb|-3-----------0-----------|-------------------------|
    love        come          true?

    Am
eb|-------------------------|-------------------------|
Bb|-1-----0-----------------|-0-----------------------|
F#|-------------2-----------|-------------------------|
C#|-------------------2-----|-------------------------|
Ab|-------------------------|-------------------------|
Eb|-------------------------|-------------------------|

[Outro]
G5  D5  D5 E5 D5 C5 B5
G5  D5  D5 E5 D5 C5 B5
G5  D5  D5 E5 D5 C5 B5
G5  D5  D5 E5 D5 C5 B5

    G5
eb|-------------------------||
Bb|-------------------------||
F#|-------------------------||
C#|-5\\\\\\\\\\\0-----------||
Ab|-5\\\\\\\\\\\0-----------||
Eb|-3\\\\\\\\\\\0-----------||



************************************

| x    Dead note
| (n)  Ghost note
| h    Hammer-on
| p    Pull-off
| b    Bend
| /    Slide up
| \    Slide down
| ~    Vibrato

************************************

eb||----------------------------------|------------------------------|
Bb||-12------------10--12---------------12----------10-12-13-12------|
F#||---11-12-11------------12---------|---11-12-11-------------14-12-|
C#||------------12--------------------|-----------12-----------------|
Ab||----------------------------------|------------------------------|
Eb||----------------------------------|------------------------------|
I think this is the intro

https://tabs.ultimate-guitar.com/w/weezer/tired_of_sex_tab.htm