Tablature guitare : Weezer – Pork And Beans

Pork and Beans
Weezer~~Red Album
2008~~~tabbed by Jack
With Bass~~


[Intro and Main Riff]        Played here and there.
eb|-----------------|       |-----------------------|
Bb|-----------------|played |-----------------------|
Gb|-----------------|through|-----------3b4---------|
Db|----------4--2---|whole  |--------4--------------|
Ab|------2----------|song   |-----2-----------------|
Eb|---3-------------|       |-3---------------------|

Bass plays the same intro riff right before the Pre chorus.


[Pre-Chorus]


eb|---------------------------------------------------------|
Bb|---------------------------------------------------------|
Gb|---------------------------------------------------------|
Db|--5-5---5-5----------------------------------------------|
Ab|--5-5---5-5----------------------------------------------|
Eb|--3-3---3-3----------------------------------------------|
     . .   . .


[Bass]

Gb|---------------------------------------------------|
Db|---------------------------------------------------|
Ab|---------------------------------------------------|
Eb|--3--3--3-3----------------------------------------|


[Chorus]

eb|--------------------------------------------------------------------------|
Bb|--------------------------------------------------------------------------|
Gb|-------------------7-7-7-7-7-7-7-7--9-9-9-9-9-9-9-9--5-5-5-5-5-5-5-5------|
Db|--5-5-5-5-5-5-5-5--7-7-7-7-7-7-7-7--9-9-9-9-9-9-9-9--5-5-5-5-5-5-5-5------|4x
Ab|--5-5-5-5-5-5-5-5--5-5-5-5-5-5-5-5--7-7-7-7-7-7-7-7--3-3-3-3-3-3-3-3------|
Eb|--3-3-3-3-3-3-3-3---------------------------------------------------------|

Bass
Gb|-----------------------------------------------------------------------------|
Db|-----------------------------------------------------------------------------|
Ab|-------------------5-5-5-5-5-5-5-5--7-7-7-7-7-7-7-7----3-3-3-3-3-3-3-3-------|
Eb|--3-3-3-3-3-3-3-3------------------------------------------------------------|


After chorus is played twice. (Guitar 2 does this)
eb|--------------------|
Bb|----12--------------|Hold the bend for 2 play throughs
Gb|----15b16-----------|of the main chorus, and strum
Db|--------------------|along with guitar 1
Ab|--------------------|
Eb|--------------------|

eb|-------------------------------------|
Bb|-------------------------------------|
Gb|--4-4-4-4-4-4-4-4--5-5-5-7-----------|
Db|--4-4-4-4-4-4-4-4--5-5-5-7-----------|
Ab|--2-2-2-2-2-2-2-2--3-3-3-5-----------|
Eb|-------------------------------------|
     ********  * * *


Gb|---------------------------------------------|
Db|---------------------------------------------|
Ab|--2-2-2-2-2-2-2-2--3-3-3-5-------------------|
Eb|---------------------------------------------|


Please rate! Thanks for looking!

************************************

| b  Bend

************************************

https://tabs.ultimate-guitar.com/w/weezer/pork_and_beans_ver2_tab.htm