Tablature guitare : Weezer – My Name Is Jonas

My Name Is Jonas
as performed by Weezer
Words and Music by Rivers Cuomo, Jason Cropper, and Patrick Wilson

6/8 Time
All strings tuned a half-step down [Eb Ab Db Gb Bb eb]
(All chords relative to standard tuning)


[Intro]

    (C)         (G6/B)        (Am)        (G6/B)
eb|---------------------0---|---------------------0---|
Bb|---1-----1-----0-------0-|---1-----1-----0-------0-|
Gb|-----0-----0-----0-------|-----2-----2-----0-------|
Db|-------2-----------0-----|-------2-----------0-----|
Ab|-3-----------2-----------|-0-----------2-----------| {clean}
Eb|-------------------------|-------------------------|
                              (2nd time) 1. My name is

                                                          
[Verse]

    C5    G5      A5    F5      C5
eb|-------------|-------------|---|
Bb|-------------|-------------|---|
Gb|-------------|-------------|---|
Db|-5-5-5-------|-------------|-5-|
Ab|-3-3-3-5-5-5-|-7-7-7-3-3-3-|-3-|  {distorted}
Eb|-------3-3-3-|-5-5-5-1-1-1-|---|
 Jonas,               I'm carrying the
 

   (C)         (G6/B)        (Am)          (G6/B)
eb|---------------------0---|---------------------0---|
Bb|---1-----1-----0-------0-|---1-----1-----0-------0-|
Gb|-----0-----0-----0-------|-----2-----2-----0-------|
Db|-------2-----------0-----|-------2-----------0-----|
Ab|-3-----------2-----------|-0-----------2-----------| {clean}
Eb|-------------------------|-------------------------|
  wheel.                              Thanks for all you've
  

    C5    G5      A5    F5
eb|-------------|-------------|
Bb|-------------|-------------|
Gb|-------------|-------------|
Db|-5-5-5-------|-------------|
Ab|-3-3-3-5-5-5-|-7-7-7-3-3-3-| {distorted}
Eb|-------3-3-3-|-5-5-5-1-1-1-|
 shown us,           This is how
 

    C5    G5      A5    F5
eb|-------------|-------------|
Bb|-------------|-------------|
Gb|-------------|-------------|
Db|-5-5-5-------|-------------|
Ab|-3-3-3-5-5-5-|-7-7-7-3-3-3-|
Eb|-------3-3-3-|-5-5-5-1-1-1-|
  we feel.
  

C5       G5         A5        F5
Come sit next to me, pour yourself some tea
C5        G5           A5                F5
Just like grand-ma made when we couldn't find sleep.
C5          G5          A5        F5
Things were better then, once but never again.
C5        G5            A5              F5
We've all left the den, let me tell you 'bout it.


    C5           A5          G5
eb|------------------------|--------------------------|
Bb|------------------------|--------------------------|
Gb|------------------------|--------------------------|
Db|-5---5---5--------------|--------------------------|
Ab|-3---3---3---7---7---7--|--5---5---5---5---5---5---|
Eb|-------------5---5---5--|--3---3---3---3---3---3---|
  Choo-choo train left right on time.

    C5           A5          G5
eb|------------------------|--------------------------|
Bb|------------------------|--------------------------|
Gb|------------------------|--------------------------|
Db|-5---5---5--------------|--------------------------|
Ab|-3---3---3---7---7---7--|--5---5---5---5---5---5---|
Eb|-------------5---5---5--|--3---3---3---3---3---3---|
  A ticket cost only your mind.
  

C5                A5             G5
The driver said, "Hey man, we go all the way."
   C5             A5         G5
Of course we were willing to pay.


     (C)         (G6/B)        (Am)        (G6/B)
eb|---------------------0---|---------------------0---|
Bb|---1-----1-----0-------0-|---1-----1-----0-------0-|
Gb|-----0-----0-----0-------|-----2-----2-----0-------|
Db|-------2-----------0-----|-------2-----------0-----|
Ab|-3-----------2-----------|-0-----------2-----------| {clean}
Eb|-------------------------|-------------------------|
                               (2nd Time) My name is
                                                           

    C5    G5      A5    F5      C5
eb|-------------|-------------|---|
Bb|-------------|-------------|---|
Gb|-------------|-------------|---|
Db|-5-5-5-------|-------------|-5-|
Ab|-3-3-3-5-5-5-|-7-7-7-3-3-3-|-3-| {distorted}
Eb|-------3-3-3-|-5-5-5-1-1-1-|---|
  Wepeel,         got a box full of your
  

   (C)         (G6/B)        (Am)          (G6/B)
eb|---------------------0---|---------------------0---|
Bb|---1-----1-----0-------0-|---1-----1-----0-------0-|
Gb|-----0-----0-----0-------|-----2-----2-----0-------|
Db|-------2-----------0-----|-------2-----------0-----|
Ab|-3-----------2-----------|-0-----------2-----------| {clean}
Eb|-------------------------|-------------------------|
  toys.                                 Fresh out of
  

    C5    G5      A5    F5
eb|-------------|-------------|
Bb|-------------|-------------|
Gb|-------------|-------------|
Db|-5-5-5-------|-------------|
Ab|-3-3-3-5-5-5-|-7-7-7-3-3-3-| {distorted}
Eb|-------3-3-3-|-5-5-5-1-1-1-|
  batteries      but there still makin'
  

    C5    G5      A5    F5
eb|-------------|-------------|
Bb|-------------|-------------|
Gb|-------------|-------------|
Db|-5-5-5-------|-------------|
Ab|-3-3-3-5-5-5-|-7-7-7-3-3-3-|
Eb|-------3-3-3-|-5-5-5-1-1-1-|
  noise, makin' noise.
  

C5      G5         A5       F5
Tell me what to do, now the tank is dry.
C5       G5            A5       F5
Now this wheel is flat, and you know what else?
C5         G5       A5       F5
Guess what I received in the mail today.
C5       G5           A5             F5
Words of deep concern from my little brother.

    C5             A5            G5
The building's not goin' as it's planned.
    C5          A5          G5
The foreman has injured his hand.
    C5         A5            G5
The dozer will not clear its path.
    C5            A5             G5
The driver swears he learned his math.


[Chorus]

     (F)                  (G)
eb|----5--5--5--5--5--5--|--7--7--7--7--7--7--|
Bb|----------------------|--------------------|
Gb|----2--2--2--2--2--2--|--4--4--4--4--4--4--|
Db|----------------------|--------------------|
Ab|----------------------|--------------------| {guitar 1}
Eb|----------------------|--------------------|
    
eb|----------------------|--------------------|
Bb|----6--6--6--8--8--8--|--8--8--8--10-10-10-|
Gb|----------------------|--------------------|
Db|----3--3--3--5--5--5--|--5--5--5--7--7--7--|
Ab|----------------------|--------------------| {guitar 2}
Eb|----------------------|--------------------|
    The workers are going  home,

     (F)                  (G)
eb|--8--8--8--8--8--8--|--10-10-10-10-10-10---|
Bb|--------------------|----------------------|
Gb|--5--5--5--5--5--5--|--7--7--7--7--7--7----|
Db|--------------------|----------------------|
Ab|--------------------|----------------------|
Eb|--------------------|----------------------|
    
eb|--------------------|----------------------|
Bb|--10-10-10-12-12-12-|--12-12-12-13-13-13---|
Gb|--------------------|----------------------|
Db|--7--7--7--9--9--9--|--9--9--9--10-10-10---|
Ab|--------------------|----------------------|
Eb|--------------------|----------------------|
     workers are going  home.            The

     (F)                  (G)
eb|--12-12-12-12-12-12-|-13-13-13-13-13-13---|
Bb|--------------------|---------------------|
Gb|--9--9--9--9--9--9--|-10-10-10-10-10-10---|
Db|--------------------|---------------------|
Ab|--------------------|---------------------|
Eb|--------------------|---------------------|
    
eb|--------------------|---------------------|
Bb|--13-13-13-15-15-15-|-15-15-15-17-17-17---|
Gb|--------------------|---------------------|
Db|--10-10-10-12-12-12-|-12-12-12-15-15-15---|
Ab|--------------------|---------------------|
Eb|--------------------|---------------------|
    workers are going   home,            the

     (F)                  (G)
eb|--15-15-15-17-17-17-|-19-19-19-19-19-19---|
Bb|--------------------|---------------------|
Gb|--12-12-12-14-14-14-|-16-16-16-16-16-16---|
Db|--------------------|---------------------|
Ab|--------------------|---------------------|
Eb|--------------------|---------------------|
    
eb|--------------------|---------------------|
Bb|--17-17-17-18-18-18-|-18-18-18-17-17-17---|
Gb|--------------------|---------------------|
Db|--14-14-14-15-15-15-|-15-15-15-14-14-14---|
Ab|--------------------|---------------------|
Eb|--------------------|---------------------|
    workers are going   home.


[Break]

    C5                                              
eb|-------------------------||-------------------------||
Bb|-------------------------||-------------------------||
Gb|-------------------------||-------------------------||
Db|-5-5-5-5-5-5-5-5-5-5-5-5-||-5-5-5-5-5-5-5-5-5-5-5-5-||
Ab|-3-3-3-3-3-3-3-3-3-3-3-3-||-3-3-3-3-3-3-3-3-3-3-3-3-||
Eb|-------------------------||-------------------------||
     Yeah!                      (Repeat 3x)


[Interlude]

    C5          A5            G5
eb|-------------------------|-----------------------|
Bb|---5-----5-----5-----5---|---8-----8-----8-----8-|
Gb|-----5-----5-----5-----5-|-----7-----7-----7-----|
Db|-5-----5-----7-----7-----|-9-----9-----9-----9---|
Ab|-------------------------|-----------------------| {guitar 1}
Eb|-------------------------|-----------------------|
    
eb|-------------------------|---------------------------------|
Bb|-------------------------|---------------------------------|
Gb|-9-9-9-9-9-9-9-9-9-9-9-9-|-10-10-10-10-10-10-10-10-10-10-10|
Db|-------------------------|---------------------------------|
Ab|-7-7-7-7-7-7-7-7-7-7-7-7-|-8--8--8--8--8--8--8--8--8--8--8-| {guitar 2}
Eb|-------------------------|---------------------------------|
 
    C5           A5            G5
eb|-------------------------|-----------------------|
Bb|---8-----8-----10---10---|---12----12----12----12|
Gb|-----9-----9-----9-----9-|-----12----12----12----|
Db|-10----10---10----10-----|-12----12----12----12--|
Ab|-------------------------|-----------------------|
Eb|-------------------------|-----------------------|
    
eb|-------------------------------------|----------------------------------|
Bb|-------------------------------------|----------------------------------|
Gb|-12-12-12-12-12-12-14-14-14-14-14-14-|-16-16-16-16-16-16-16-16-16-16-16-|
Db|-------------------------------------|----------------------------------|
Ab|-10-10-10-10-10-10-12-12-12-12-12-12-|-14-14-14-14-14-14-14-14-14-14-14-|
Eb|-------------------------------------|----------------------------------|
 
    C5           A5            G5
eb|---8-----8-----8-----8---|--10----10----10---10--|
Bb|-----8-----8-----10----10/12--12----12----12---12|
Gb|-9-----9-----9-----9-----|------12----12----12---|
Db|-------------------------|-----------------------|
Ab|-------------------------|-----------------------|
Eb|-------------------------|-----------------------|
    
eb|-------------------------------------|---------------------------------|
Bb|-13-13-13-13-13-13-13-13-13-13-13-13-|-15-15-15-15-15-15-15-15-15-15-15|
Gb|-------------------------------------|---------------------------------|
Db|-10-10-10-10-10-10-10-10-10-10-10-10-|-12-12-12-12-12-12-12-12-12-12-12|
Ab|-------------------------------------|---------------------------------|
Eb|-------------------------------------|---------------------------------|
 
    C5           A5            G5
eb|---12----12----12----12--|--15---15----17----19--|
Bb|-----13----13----13----13|----15---15----15----16|
Gb|-12----12----14----14----|/16---16---16----16----|
Db|-------------------------|-----------------------|
Ab|-------------------------|-----------------------|
Eb|-------------------------|-----------------------|
    
eb|------------------------------------|-----------------------------------------------|
Bb|17-17-17-17-17-17-17-17-17-17-17-17-|17b-17b-17b-17b-17b-17b-17b-17b-17b-17b-17b-17b|
Gb|------------------------------------|-----------------------------------------------|
Db|14-14-14-14-14-14-14-14-14-14-14-14-|14b-14b-14b-14b-14b-14b-14b-14b-14b-14b-14b-14b|
Ab|------------------------------------|-----------------------------------------------|
Eb|------------------------------------|-----------------------------------------------|
 

[Chorus]

    E5          F5            G5
eb|-------------------------|-------------------------|
Bb|-------------------------|-------------------------|
Gb|-------------------------|-------------------------|
Db|-------------------------|-------------------------|
Ab|-2---2-2-2-2-3---3-3-3-3-|-5---5-5-5-5-5---5-5-5-5-|
Eb|-0---0-0-0-0-1---1-1-1-1-|-3---3-3-3-3-3---3-3-3-3-|
    
eb|-------------------------|-------------------------|
Bb|-------------------------|-15--13--12--15--13--12--|
Gb|-12--12--12--14--14--14--|-------------------------|
Db|-------------------------|-------------------------|
Ab|-------------------------|-------------------------|
Eb|-------------------------|-------------------------|
  Workers  are  go - ing    home,                 the

E5          F5    G5
workers are going home.
    E5          F5    G5
The workers are going home,
E5    F5    G5
yeah, yeah, yeah.


[Harmonica Solo]

(same as Interlude)

    C5          A5            G5
eb|-------------------------|-----------------------|
Bb|---5-----5-----5-----5---|---8-----8-----8-----8-|
Gb|-----5-----5-----5-----5-|-----7-----7-----7-----|
Db|-5-----5-----7-----7-----|-9-----9-----9-----9---|
Ab|-------------------------|-----------------------| {guitar 1}
Eb|-------------------------|-----------------------|
    
eb|-------------------------|---------------------------------|
Bb|-------------------------|---------------------------------|
Gb|-9-9-9-9-9-9-9-9-9-9-9-9-|-10-10-10-10-10-10-10-10-10-10-10|
Db|-------------------------|---------------------------------|
Ab|-7-7-7-7-7-7-7-7-7-7-7-7-|-8--8--8--8--8--8--8--8--8--8--8-| {guitar 2}
Eb|-------------------------|---------------------------------|
 
    C5           A5            G5
eb|-------------------------|-----------------------|
Bb|---8-----8-----10---10---|---12----12----12----12|
Gb|-----9-----9-----9-----9-|-----12----12----12----|
Db|-10----10---10----10-----|-12----12----12----12--|
Ab|-------------------------|-----------------------|
Eb|-------------------------|-----------------------|
    
eb|-------------------------------------|----------------------------------|
Bb|-------------------------------------|----------------------------------|
Gb|-12-12-12-12-12-12-14-14-14-14-14-14-|-16-16-16-16-16-16-16-16-16-16-16-|
Db|-------------------------------------|----------------------------------|
Ab|-10-10-10-10-10-10-12-12-12-12-12-12-|-14-14-14-14-14-14-14-14-14-14-14-|
Eb|-------------------------------------|----------------------------------|
 
    C5           A5            G5
eb|---8-----8-----8-----8---|--10----10----10---10--|
Bb|-----8-----8-----10----10/12--12----12----12---12|
Gb|-9-----9-----9-----9-----|------12----12----12---|
Db|-------------------------|-----------------------|
Ab|-------------------------|-----------------------|
Eb|-------------------------|-----------------------|
    
eb|-------------------------------------|---------------------------------|
Bb|-13-13-13-13-13-13-13-13-13-13-13-13-|-15-15-15-15-15-15-15-15-15-15-15|
Gb|-------------------------------------|---------------------------------|
Db|-10-10-10-10-10-10-10-10-10-10-10-10-|-12-12-12-12-12-12-12-12-12-12-12|
Ab|-------------------------------------|---------------------------------|
Eb|-------------------------------------|---------------------------------|
 
    C5           A5            G5
eb|---12----12----12----12--|--15---15----17----19--|
Bb|-----13----13----13----13|----15---15----15----16|
Gb|-12----12----14----14----|/16---16---16----16----|
Db|-------------------------|-----------------------|
Ab|-------------------------|-----------------------|
Eb|-------------------------|-----------------------|
    
eb|------------------------------------|-----------------------------------------------|
Bb|17-17-17-17-17-17-17-17-17-17-17-17-|17b-17b-17b-17b-17b-17b-17b-17b-17b-17b-17b-17b|
Gb|------------------------------------|-----------------------------------------------|
Db|14-14-14-14-14-14-14-14-14-14-14-14-|14b-14b-14b-14b-14b-14b-14b-14b-14b-14b-14b-14b|
Ab|------------------------------------|-----------------------------------------------|
Eb|------------------------------------|-----------------------------------------------|
 

[Outro]

    E5           F5
eb|-----------------------|-----------------------|
Bb|-----------------------|-----------------------|
Gb|-----------------------|-----------------------|
Db|-----------------------|-----------------------|
Ab|-2--2---2--2--3--3--3--|-5--5---5--5--5--5--5--|
Eb|-0--0---0--0--1--1--1--|-3--3---3--3--3--3--3--|
 
    E5           F5         G5
eb|-----------------------|-----------------------|
Bb|-----------------------|-----------------------|
Gb|-----------------------|-----------------------|
Db|-----------------------|-----------------------|
Ab|-2--2---2--2--3--3--3--|-5---------------------|
Eb|-0--0---0--0--1--1--1--|-3---------------------|
 
  
eb|--------------------|
Bb|--------------------|
Gb|--------------------|
Db|--------------------|
Ab|--------------0--2--| {clean}
Eb|------------3-------|
 

     (C)         (G6/B)        (Am)        (G6/B)
eb|---------------------0---|---------------------0---|
Bb|---1-----1-----0-------0-|---1-----1-----0-------0-|
Gb|-----0-----0-----0-------|-----2-----2-----0-------|
Db|-------2-----------0-----|-------2-----------0-----|
Ab|-3-----------2-----------|-0-----------2-----------|
Eb|-------------------------|-------------------------|
                                    (2nd Time)  My name is
    C
eb|-0------------------------|
Bb|-1------------------------|
Gb|-0------------------------|
Db|-2------------------------|
Ab|-3------------------------|
Eb|--------------------------|
  Jonas.



************************************

| b  Bend
| /  Slide up

************************************

https://tabs.ultimate-guitar.com/w/weezer/my_name_is_jonas_tab.htm