Tablature guitare : Weezer – Beverly Hills

Beverly Hills
 

[Intro]

 e|----------------|----------------|----------------|----------------|
 B|----------------|----------------|----------------|----------------|
 G|--------3-3-----|--------3-3-----|--------3-3-----|5-5-------------|
 D|3-3-----3-3-----|3-3-----3-3-----|3-3-----3-3-----|5-5---------2---|
 A|3-3-----1-1-----|3-3-----1-1-----|3-3-----1-1-----|3-3---------2---|
 E|1-1-------------|1-1-------------|1-1-------------|------------0---|


[Verse]

 e|----------------|----------------|----------------|----------------|
 B|----------------|----------------|----------------|----------------|
 G|--------3-3-----|--------3-3-----|--------3-3-----|5-5-------------|
 D|3-3-----3-3-----|3-3-----3-3-----|3-3-----3-3-----|5-5---------2---|
 A|3-3-----1-1-----|3-3-----1-1-----|3-3-----1-1-----|3-3---------2---|
 E|1-1-------------|1-1-------------|1-1-------------|------------0---|

 

 e|----------------|----------------|----------------|----------------|
 B|----------------|----------------|----------------|----------------|
 G|--------3-3-----|--------3-3-----|--------3-3-----|5-5-------------|
 D|3-3-----3-3-----|3-3-----3-3-----|3-3-----3-3-----|5-5---------2---|
 A|3-3-----1-1-----|3-3-----1-1-----|3-3-----1-1-----|3-3---------2---|
 E|1-1-------------|1-1-------------|1-1-------------|------------0---|

[Chorus]

 e|----------------|----------------|----------------|----------------|
 B|----------------|----------------|----------------|----------------|
 G|--------3-3-----|5-5-----3-3-----|--------3-3-----|5-5-------------|
 D|3-3-----3-3-----|5-5-----3-3-----|3-3-----3-3-----|5-5---------2---|
 A|3-3-----1-1-----|3-3-----1-1-----|3-3-----1-1-----|3-3---------2---|
 E|1-1-------------|----------------|1-1-------------|------------0---|
 
 

 e|----------------|----------------|----------------|----------------|
 B|----------------|----------------|----------------|----------------|
 G|--------3-3-----|5-5-----3-3-----|--------3-3-----|5-5-------------|
 D|3-3-----3-3-----|5-5-----3-3-----|3-3-----3-3-----|5-5---------2---|
 A|3-3-----1-1-----|3-3-----1-1-----|3-3-----1-1-----|3-3---------2---|
 E|1-1-------------|----------------|1-1-------------|------------0---|


[Solo]

 e|----------------|--------4b------|----------------|----------------|
 B|--6-4-----------|--6-4-------6---|--6-4-----------|----------------|
 G|------5-3-3431--|------5---------|------5-3-3431--|3--3--1---------|
 D|----------------|----------------|----------------|----------------|
 A|----------------|----------------|----------------|----------------|
 E|----------------|----------------|----------------|----------------|



 e|----------------|--------4b------|----------------|----------------|
 B|--6-4-----------|--6-4-------6---|--6-4-----------|----------------|
 G|------5-3-3431--|------5---------|------5-3-3431--|3--3--1---------|
 D|----------------|----------------|----------------|----------------|
 A|----------------|----------------|----------------|----------------|
 E|----------------|----------------|----------------|----------------|

Whilst the solo is played, the other guitar plays the verse chords


[Bridge]

 e|----------------|----------------|----------------|----------------|
 B|------------3---|------------3---|------------3---|----3-------3---|
 G|2---2---3-----3-|2---2---3-----3-|2---2---3-----3-|4-----4-3-------|
 D|--3---3---3-----|--3---3---3-----|--3---3---3-----|--3-------3-----|
 A|----------------|----------------|----------------|----------------|
 E|----------------|----------------|----------------|----------------|

[Verse]

[Outro]
(the same as the verse)

[Solo]
Classy guitar solo towards the end.

https://tabs.ultimate-guitar.com/w/weezer/beverly_hills_ver3_tab.htm