Tablature guitare : The White Stripes – Seven Nation Army

Version 1

[Verse]

e|-------------------|
B|-------------------|
G|-------------------|x12
D|-------------------|
A|-7--7-10-7-5-3--2--|
E|-------------------|


[Pre Chorus]

e|---------------------------------|
B|---------------------------------|
G|---------------------------------|
D|-5-5-5-5-5-5-5-5-7-7-7-7-7-7-7-7-|
A|-5-5-5-5-5-5-5-5-7-7-7-7-7-7-7-7-|
E|-3-3-3-3-3-3-3-3-5-5-5-5-5-5-5-5-|


[Chorus] x2

e|------------------|
B|------------------|
G|-9--9-12-9-7-5--4-|
D|-9--9-12-9-7-5--4-|
A|-7--7-10-7-5-3--2-|
E|------------------|

e|---------------------|
B|---------------------|
G|-9--9-12-9-7-5/7\5-4-|
D|-9--9-12-9-7-5/7\5-4-|
A|-7--7-10-7-5-3/5\3-2-|
E|---------------------|


[Post Chorus]

e|---------------------------------|
B|---------------------------------|
G|---------------------------------|
D|-5-5-5-5-5-5-5-5-7-7-7-7-7-7-7-7-|
A|-5-5-5-5-5-5-5-5-7-7-7-7-7-7-7-7-|
E|-3-3-3-3-3-3-3-3-5-5-5-5-5-5-5-5-|


[Verse]

e|------------------|
B|------------------|
G|------------------|x12
D|------------------|
A|-7--7-10-7-5-3--2-|
E|------------------|


[Pre Chorus]

e|---------------------------------|
B|---------------------------------|
G|---------------------------------|
D|-5-5-5-5-5-5-5-5-7-7-7-7-7-7-7-7-|
A|-5-5-5-5-5-5-5-5-7-7-7-7-7-7-7-7-|
E|-3-3-3-3-3-3-3-3-5-5-5-5-5-5-5-5-|


[Chorus] x2

(play with solo)

e|------------------|
B|------------------|
G|-9--9-12-9-7-5--4-|
D|-9--9-12-9-7-5--4-|
A|-7--7-10-7-5-3--2-|
E|------------------|

e|---------------------|
B|---------------------|
G|-9--9-12-9-7-5/7\5-4-|
D|-9--9-12-9-7-5/7\5-4-|
A|-7--7-10-7-5-3/5\3-2-|
E|---------------------|


[Solo]

e|------------------------------------------------|
B|------------------------------------------------|
G|-9~-------12~-11~----9--9-12-14-12-12/14-12-11~-|
D|------------------------------------------------|
A|------------------------------------------------|
E|------------------------------------------------|

e|-----------------------------------------------------|
B|-----------------------------------------------------|
G|-9--9-12-14-7-/12~-11~----9--9-12-14-12-12/14-12-11~-|
D|-----------------------------------------------------|
A|-----------------------------------------------------|
E|-----------------------------------------------------|

e|-12--12-15-12-12-/15~-14~----12--12-15-17-15-15/17-15-14-|
B|--------------------------------------------------------|
G|--------------------------------------------------------|
D|--------------------------------------------------------|
A|--------------------------------------------------------|
E|--------------------------------------------------------| 

e|-12--12-15-12-12-15b17-14~----12--12-14-12-12-14-12--------|
B|----------------------------------------------------13-12~-|
G|-----------------------------------------------------------|
D|-----------------------------------------------------------|
A|-----------------------------------------------------------|
E|-----------------------------------------------------------| 


[Post Chorus]

e|---------------------------------|
B|---------------------------------|
G|---------------------------------|
D|-5-5-5-5-5-5-5-5-7-7-7-7-7-7-7-7-|
A|-5-5-5-5-5-5-5-5-7-7-7-7-7-7-7-7-|
E|-3-3-3-3-3-3-3-3-5-5-5-5-5-5-5-5-|


[Verse]

e|------------------|
B|------------------|
G|------------------|x12
D|------------------|
A|-7--7-10-7-5-3--2-|
E|------------------|


[Pre Chorus]

e|---------------------------------|
B|---------------------------------|
G|---------------------------------|
D|-5-5-5-5-5-5-5-5-7-7-7-7-7-7-7-7-|
A|-5-5-5-5-5-5-5-5-7-7-7-7-7-7-7-7-|
E|-3-3-3-3-3-3-3-3-5-5-5-5-5-5-5-5-|


[Chorus] x2

e|------------------|
B|------------------|
G|-9--9-12-9-7-5--4-|
D|-9--9-12-9-7-5--4-|
A|-7--7-10-7-5-3--2-|
E|------------------|

e|---------------------|
B|---------------------|
G|-9--9-12-9-7-5/7\5-4-|
D|-9--9-12-9-7-5/7\5-4-|
A|-7--7-10-7-5-3/5\3-2-|
E|---------------------|


[End on]

e|---------|
B|---------|
G|-9-----1-|
D|-9-----2-|
A|-7-----2-|
E|---------|


***********************************

| ~   Vibrato
| b   Bend 

***********************************

https://tabs.ultimate-guitar.com/t/the_white_stripes/seven_nation_army_ver7_tab.htm

Version 2

tune guitar to open A tuning (low to high: E A E A C# E)


[Verse]

e-------------------------------------------|
C#------------------------------------------|
A-------------------------------------------|
E-------------------------------------------|
A---7----7----10----7----5----3----2--------| x8
E-------------------------------------------|


[Pre-chorus]

e-------------------------------------------|
C#-----------------------0-0-0-0--0-0-0-0---|
A------------------------0-0-0-0--0-0-0-0---|
E-0-0--------------------0-0-0-0--0-0-0-0---|
A-0-0--5-5-5-5--5-5-5-5--0-0-0-0--0-0-0-0---|
E-0-0--3-3-3-3--3-3-3-3--0-0-0-0--0-0-0-0---|


[Chours]

e--------------------------------------|
C#---7--7--/--10--7--5--3--2-----------|
A----7--7--/--10--7--5--3--2-----------|
E----7--7--/--10--7--5--3--2-----------|
A----7--7--/--10--7--5--3--2-----------|
E--------------------------------------|

e-------------------------------=-----------|
C#--7-7--/--10--7--5--3--/-5-/-3--2--0------|
A---7-7--/--10--7--5--3--/-5-/-3--2--0------|
E---7-7--/--10--7--5--3--/-5-/-3--2--0------|
A---7-7--/--10--7--5--3--/-5-/-3--2--0------|
E-------------------------------------------|

Riff 2(after chours): 

e-------------------------------------------|
C#-----------------------0-0-0-0--0-0-0-0---|
A------------------------0-0-0-0--0-0-0-0---|
E------------------------0-0-0-0--0-0-0-0---|
A------5-5-5-5--5-5-5-5--0-0-0-0--0-0-0-0---|
E------3-3-3-3--3-3-3-3--0-0-0-0--0-0-0-0---|


[Solo]

e----------------------------------------------------|
C#---------------------------------------------------|
A---------------10--9--9/0------------10--12--10-----|
E--12-12-12-12--------------------12-----------------|
A-----------------------------12---------------------|
E-----------------------------12---------------------|

e----------------------------------------------------------|
C#---------------------------------------------------------|
A---10/12--10--9--0-----------------10------10/9--9--------|
E--------------------/12-12-12--12------12-----------------|
A--------------------/12-12-12-----------------------------|
E----------------------------------------------------------|

e------------------------------------------12--12--12--15--12--12--|
C#-----------------------------------------------------------------|
A-----------10--12--10--10--12--10--9--0---------------------------|
E--/12--12---------------------------------------------------------|
A--/12--12---------------------------------------------------------|
E--/12-------------------------------------------------------------|

e---14--/12--12/15--17--15--15/17--15--14--0-|
C#-------------------------------------------|
A--------------------------------------------|
E--------------------------------------------|
A--------------------------------------------|
E--------------------------------------------|

e---12--12--12/14--12--12--17--14--12--12--12/14-12--12-|
C#------------------------------------------------------|
A-------------------------------------------------------|
E-------------------------------------------------------|
A-------------------------------------------------------|
E-------------------------------------------------------|

e---14--12-----------------------------------------------|
C#----------11--10----/10----/12----12\------------------|
A-------------------0-/10-8x-/12-6x-12\------------------|
E---------------------/10----/12----12\------------------|
A----------------------------/12----12\------------------|
E-----------------------------------12\------------------|



**********************************

| /   Slide up
| \   Slide down

**********************************

https://tabs.ultimate-guitar.com/t/the_white_stripes/seven_nation_army_ver11_tab.htm