Tablature guitare : The Kooks – Naive

The Kooks

Naive - from Inside In/Inside Out
 
Tabbed by: Mark Bryce   14th February 2007

Email: Brycey81a@hotmail.com
Web: www.myspace.com/markbryce

I'm tired of seeing incomplete half-arsed guitar tabs, so here is the song as note perfect as i can manage

Enjoy!

___________________________________________________


Tuning: EADGBe

Legend
        h    - hammer on
        p    - pull off
        /    - slide up
        \    - slide Down
                

Guitar 1: Rhythm Guitar 
Guitar 2: Addition Lead/rhythm Guitar parts

_____________________________________________________


[Intro]

A lot of string muting is required in this song for the right effect.
I've tried to put it in as much as I can, but really its up to you to figure out the rhythm for yourself


Guitar 1 

    G#sus4           E                F#/Bb          B      Bmaj7th-sus4
e|-----x--x-x-x-x-----------x-x-x-x-------x-x-x-x--------7--7-7-x-x-x--|
B|-----x--x-x-x-x--------9--x-x-x-x-------x-x-x-x--------7--7-7-x-x-x--|
G|-----6--6-6-6-6\---x-x-9--6-6-6-6\------6-6-6-6p4--4-4-8--9-9-x-x-x--|
D|--x--6--6-6-6-6\---9-9-9--6-6-6-6\------4-4-4-4----4-4-9--8-8-x-x-x--|
A|--6----------------7-7-7-------------------------------9--9-9-x-x-x--|
E|--4---------------------------------4/6----------------7--7-7--------|

                 ^^                ^^
          slide down the fret board for effect
                

[Verse 1]


I'm not saying it was your fault, although you could have done more 
Oh you're so naive yet so 

Guitar 1 

       G#sus4       E              F#/Bb           B    Bmaj7th-sus4
e|-------------------------------------------------7-7--7-7-x-x-x--|
B|-----x--x-x-x-x-----9-x-9-9-9-9----7-x-7-7-7-7---7-7--7-7-x-x-x--|
G|-----6--6-6-6-6\--9-9-x-9-9-9-9----6-x-6-6-6-6---8-8--9-9-x-x-x--|
D|--x--6--6-6-6-6\--9-9-x-9-9-9-9--x-4-x-4-4-4-4---9-9--8-8-x-x-x--|
A|--6---------------7-7-x-7-7-7-7--x-x-x-x-x-x-x---9-9--9-9-x-x-x--|
E|--4------------------------------6-6---6-6-6-6---7-7--7-7--------|

Guitar 2 

e|-----------------------------------------------------------------|
B|-----------------------------------------------------------------|
G|--4-------------------------4/6----------------------------------|
D|-----------------------------------------------------------------|
A|-----------------------------------------------------------------|
E|-----------------------------------------------------------------|


How could this be done, you're such a smiling sweetheart 
Oh and your sweet and pretty face 

Guitar 1 

    G#m            E             F#/Bb         B    Bmaj7th-sus4
e|-----4-x-4-4-4-------------------------------7-7--7-7-7-x-x--|
B|-----4-x-4-4-4---9-9-x-9-9-9---7-7-x-7-7-7---7-7--7-7-7-x-x--|
G|-----4-x-4-4-4---9-9-x-9-9-9---6-6-x-6-6-6---8-8--9-9-9-x-x--|
D|--x--6-x-6-6-6---9-9-x-9-9-9---4-4-x-4-4-4---9-9--8-8-8-x-x--|
A|--6--6-x---------7-7-x-7-7-7---x-x-x-x-x-x---9-9--9-9-9-x-x--|
E|--4--4-x-----------------------6-6---6-6-6---7-7--7-7-7------|

Guitar 2 

e|-------------------------------------------------------------|
B|-------------------------------------------------------------|
G|--4----------------------------------6------------6-6--------|
D|-------------------------------8-----------------------------|
A|-------------------------------------------------------------|
E|-------------------------------------------------------------|


In such an ugly world, Something so beautiful
That everytime I look inside 

Guitar 1 

       G#m         E             F#/Bb         B    Bmaj7th-sus4
e|-----4-x-4-4-4-------------------------------7-7--7-7---|
B|-----4-x-4-4-4---9-9-x-9-9-9---7-7-x-7-7-7---7-7--7-7---|
G|-----4-x-4-4-4---9-9-x-9-9-9---6-6-x-6-6-6---8-8--9-9---|
D|--x--6-x-6-6-6---9-9-x-9-9-9---4-4-x-4-4-4---9-9--8-8---|
A|--6--6-x---------7-7-x-7-7-7---x-x-x-x-x-x---9-9--9-9---|
E|--4--4-x-----------------------6-6---6-6-6---7-7--7-7---|

Guitar 2 

e|---------------------------------------------7-7--7-7---|
B|---------------------------------------------8-8--7-7---|
G|--4/6------------4-------------------6--6----8-8--9-9---|
D|-------------------------------8-------------9-9--8-9---|
A|---------------------------------------------9-9--9-9---|
E|---------------------------------------------7-7--7-7---|


[Chrous 1]


I know she knows that I'm not fond of asking 
True or false, it may be... well she's still out to get me

Guitar 1 

    E       B       D#m     E       B       D#m
e|----------7-------6---------------7-------6--------|
B|--9-------7-------7-------9-------7-------7--------|
G|--9-------8-------8-------9-------8-------8--------|
D|--9-------9-------8-------9-------9-------8--------|
A|--7-------9-------6-------7-------9-------6--------|
E|----------7-------6---------------7-------6--------|

Guitar 2 

    E       B       D#m     E       B       D#m
e|----------7-------6---------------7-------6--------|
B|--9-------7-------7-------9-------7-------7--------|
G|--9-------8-------8-------9-------8-------8--------|
D|--9-------9-------8-------9-------9-------8--------|
A|--7-------9-------6-------7-------9-------6--------|
E|----------7-------6---------------7-------6--------|


And I know she knows that I'm not fond of asking 
True or false, it may be... she's still out to get me

Guitar 1 

    E        G#m   D#m     E          B    D#m
e|-----------4-4-x-6-6-6--------------7-7--6-6----|
B|--9-9-9-9--4-4-x-7-7-7----9--9-9-9--7-7--7-7----|
G|--9-9-9-9--4-4-x-8-8-8----9--9-9-9--8-8--8-8----|
D|--9-9-9-9--6-6-x-8-8-8----9--9-9-9--9-9--8-8----|
A|--7-7-7-7--6---x-6-6-6----7--7-7-7--9-9--6-6----|
E|-----------4-----6-6-6--------------7-7--6-6----|

Guitar 2 

    E        G#m   D#m      E         B    D#m
e|-----------4-4-x-6-6-6--------------7-7--6-6----|
B|--9--------4-4-x-7-7-7----9---------7-7--7-7----|
G|--9--------4-4-x-8-8-8----9---------8-8--8-8----|
D|--9--------6-6-x-8-8-8----9---------9-9--8-8----|
A|--7--------6---x-6-6-6----7---------9-9--6-6----|
E|-----------4-----6-6-6--------------7-7--6-6----|


End chorus on:

Guitar 1

    Esus2           
e|--7-------7-----------7---------------x-x-|
B|--7-------7-----------7---------------x-x-|
G|--9-------9-----------9---------------x-x-|
D|--9-------9-----------9---------------x-x-|
A|--7-------7-----------7---------------x-x-|
E|--------------------------------------x-x-|

Guitar 2
   
e|------------------------------------------|
B|--12-12-12-12-12-12-12-12-12-12-12-12-----|
G|--11-11-11-11-11-11-11-11-11-11-11-11-----|
D|------------------------------------------|
A|------------------------------------------|
E|------------------------------------------|


[Verse 2]

I may say it was your fault, because I know you could have done more 
Oh you're so naive yet so 

Guitar 1 

     G#m               E                 F#/Bb             B     Bmaj7th-sus4
e|---4-4-4-4-4--4-4-4--------------------------------------7-7-7--7-7-7-|
B|---4-4-4-4-4--4-4-4--9-9-9-9-9--9-9-9--7-7-7-7-7--7-7-7--7-7-7--7-7-7-|
G|---4-4-4-4-4--4-4-4--9-9-9-9-9--9-9-9--6-6-6-6-6--6-6-6--8-8-8--9-9-9-|
D|---6-6-6-6-6--6-6-6--9-9-9-9-9--9-9-9--4-4-4-4-4--4-4-4--9-9-9--8-8-8-|
A|---6-6-6-6-6--6-6-6--7-7-7-7-7--7-7-7--x-x-x-x-x--x-x-x--9-9-9--9-9-9-|
E|---4-4-4-4-4--4-4-4--------------------6-6-6-6-6--6-6-6--7-7-7--7-7-7-|

Guitar 2 

     G#m               E                 F#                B     Bmaj7th-sus4
e|---x-x-x-x-x--x-x-x--x-x-x-x-x--x-x-x---------------------------------|
B|---4-4-4-4-4--4-4-4--9-9-9-9-9--9-9-9--x-x-x-x-x--x-x-x--x-x-x--x-x-x-|
G|---4-4-4-4-4--4-4-4--9-9-9-9-9--9-9-9--6-6-6-6-6--6-6-6--4-4-4--9-9-9-|
D|---6-6-6-6-6--6-6-6--9-9-9-9-9--9-9-9--4-4-4-4-4--4-4-4--4-4-4--8-8-8-|
A|----------------------------------------------------------------------|
E|----------------------------------------------------------------------|

How could this be done, by such a smiling sweetheart,
Oh and your sweet and pretty face 

Guitar 1 

     G#m               E                 F#/Bb             B     Bmaj7th-sus4
e|---4-4-4-4-4--4-4-4--------------------------------------7-7-7--7-7-7-7-|
B|---4-4-4-4-4--4-4-4--9-9-9-9-9--9-9-9--7-7-7-7-7--7-7-7--7-7-7--7-7-7-7-|
G|---4-4-4-4-4--4-4-4--9-9-9-9-9--9-9-9--6-6-6-6-6--6-6-6--8-8-8--9-9-9-9-|
D|---6-6-6-6-6--6-6-6--9-9-9-9-9--9-9-9--4-4-4-4-4--4-4-4--9-9-9--8-8-8-8-|
A|---6-6-6-6-6--6-6-6--7-7-7-7-7--7-7-7--x-x-x-x-x--x-x-x--9-9-9--9-9-9-9-|
E|---4-4-4-4-4--4-4-4--------------------6-6-6-6-6--6-6-6--7-7-7--7-7-7-7-|

Guitar 2 

     G#m               E                 F#                      Bmaj7th-sus4
e|---x-x-x-x-x--x-x-x--x-x-x-x-x--x-x-x--x--x--x--x--x---x--x--x----------|
B|---4-4-4-4-4--4-4-4--9-9-9-9-9--9-9-9--14-14-14-14-14--14-14-14-x-x-x-x-|
G|---4-4-4-4-4--4-4-4--9-9-9-9-9--9-9-9--11-11-11-11-11--11-11-11-9-9-9-9-|
D|---6-6-6-6-6--6-6-6--9-9-9-9-9--9-9-9--11-11-11-11-11--11-11-11-8-8-8-8-|
A|------------------------------------------------------------------------|
E|------------------------------------------------------------------------|

In such an ugly world, something so beautiful,
That everytime I look inside 

Guitar 1 

     G#m               E                 F#/Bb             B    Bmaj7th-sus4
e|---4-4-4-4-4--4-4-4--------------------------------------7-7--7-7--|
B|---4-4-4-4-4--4-4-4--9-9-9-9-9--9-9-9--7-7-7-7-7--7-7-7--7-7--7-7--|
G|---4-4-4-4-4--4-4-4--9-9-9-9-9--9-9-9--6-6-6-6-6--6-6-6--8-8--9-9--|
D|---6-6-6-6-6--6-6-6--9-9-9-9-9--9-9-9--4-4-4-4-4--4-4-4--9-9--8-8--|
A|---6-6-6-6-6--6-6-6--7-7-7-7-7--7-7-7--x-x-x-x-x--x-x-x--9-9--9-9--|
E|---4-4-4-4-4--4-4-4--------------------6-6-6-6-6--6-6-6--7-7--7-7--|

Guitar 2 

     G#m               E                 F#                      Bmaj7th-sus4
e|---x-x-x-x-x--x-x-x--x-x-x-x-x--x-x-x--x--x--x--x--x---x--x--x--------|
B|---4-4-4-4-4--4-4-4--9-9-9-9-9--9-9-9--14-14-14-14-14--14-14-14--x-x--|
G|---4-4-4-4-4--4-4-4--9-9-9-9-9--9-9-9--11-11-11-11-11--11-11-11--9-9--|
D|---6-6-6-6-6--6-6-6--9-9-9-9-9--9-9-9--11-11-11-11-11--11-11-11--8-8--|
A|----------------------------------------------------------------------|
E|----------------------------------------------------------------------|


[Chrous 2]

I know she knows that I'm not fond of asking 
True or false, it may be... well she's still out to get me

Guitar 1 

    E        B    D#m      E        B    D#m
e|-----------7-7--6-6-6-6-----------7-7--6-6-6-6---|
B|--9-9-9-9--7-7--7-7-7-7--9-9-9-9--7-7--7-7-7-7---|
G|--9-9-9-9--8-8--8-8-8-8--9-9-9-9--8-8--8-8-8-8---|
D|--9-9-9-9--9-9--8-8-8-8--9-9-9-9--9-9--8-8-8-8---|
A|--7-7-7-7--9-9--6-6-6-6--7-7-7-7--9-9--6-6-6-6---|
E|-----------7-7--6-6-6-6-----------7-7--6-6-6-6---|

Guitar 2 

    E        B    D#m      E        B    D#m
e|-----------7-7--6-6-6-6-----------7-7--6-6-6-6---|
B|--9-9-9-9--7-7--7-7-7-7--9-9-9-9--7-7--7-7-7-7---|
G|--9-9-9-9--8-8--8-8-8-8--9-9-9-9--8-8--8-8-8-8---|
D|--9-9-9-9--9-9--8-8-8-8--9-9-9-9--9-9--8-8-8-8---|
A|--7-7-7-7--9-9--6-6-6-6--7-7-7-7--9-9--6-6-6-6---|
E|-----------7-7--6-6-6-6-----------7-7--6-6-6-6---|


I know she knows that I'm not fond of asking 
True or false, it may be... she's still out to get me

Guitar 1 

    E        G#m  D#m      E        B    D#m
e|-----------4-4--6-6-6-6-----------7-7--6-6---|
B|--9-9-9-9--4-4--7-7-7-7--9-9-9-9--7-7--7-7---|
G|--9-9-9-9--4-4--6-6-6-6--9-9-9-9--8-8--8-8---|
D|--9-9-9-9--6-6--8-8-8-8--9-9-9-9--9-9--8-8---|
A|--7-7-7-7--6----6-6-6-6--7-7-7-7--9-9--6-6---|
E|-----------4----6-6-6-6-----------7-7--6-6---|

Guitar 2 

    E        G#m  D#m      E        B    D#m
e|-----------4-4--6-6-6-6-----------7-7--6-6---|
B|--9-9-9-9--4-4--7-7-7-7--9-9-9-9--7-7--7-7---|
G|--9-9-9-9--4-4--8-8-8-8--9-9-9-9--8-8--8-8---|
D|--9-9-9-9--6-6--8-8-8-8--9-9-9-9--9-9--8-8---|
A|--7-7-7-7--6----6-6-6-6--7-7-7-7--9-9--6-6---|
E|-----------4----6-6-6-6-----------7-7--6-6---|


[Bridge]

Guitar 1 
     
e|--------------------------------------------0--0--0--0--0--0----|
B|--------------------------------------------0--0--0--0--0--0----|
G|---4-4-/-6-6-6-6-/-8-8-8-8-/-9--9--9--9--/--11-11-11-11-11-16---|
D|---6-6-/-8-8-8-8-/-9-9-9-9-/-11-11-11-11-/-----------------16---|
A|----------------------------------------------------------------|
E|----------------------------------------------------------------|

Guitar 2 
     
e|-----------------------------------------------------------0----|
B|-----------------------------------------------------------0----|
G|-----------------------------------------------------------16---|
D|-----------------------------------------------------------16---|
A|----------------------------------------------------------------|
E|----------------------------------------------------------------|


Guitar 1 
     
e|-------------------------------------------0--0--0--0--0--0--0-0--|
B|-------------------------------------------0--0--0--0--0--0--0-0--|
G|---4-4-/-6-6-6-6-/-8-8-8-8-/-9--9--9--9--/-11-11-11-11-11-11-9-9--|
D|---6-6-/-8-8-8-8-/-9-9-9-9-/-11-11-11-11-/------------------------|
A|------------------------------------------------------------------|
E|------------------------------------------------------------------|

Guitar 2 
     
e|---------------------------------12----12-------------------------|
B|-19-19-19-17-14---17-16-12-12h14----14-----14-14-14-14-14-14-x-x--|
G|-------------------------------------------11-11-11-11-11-11-9-9--|
D|-------------------------------------------11-11-11-11-11-11-9-9--|
A|------------------------------------------------------------------|
E|------------------------------------------------------------------|


[Verse 3]

So how could this be done by such a smiling sweetheart 
Oh you're so naive yet so 

Guitar 1 

     G#m               E                 F#/Bb             B     Bmaj7th-sus4
e|---4-4-4-4-4--4-4-4--------------------------------------7-7-7--7-7-7-7-|
B|---4-4-4-4-4--4-4-4--9-9-9-9-9--9-9-9--7-7-7-7-7--7-7-7--7-7-7--7-7-7-7-|
G|---4-4-4-4-4--4-4-4--9-9-9-9-9--9-9-9--6-6-6-6-6--6-6-6--8-8-8--9-9-9-9-|
D|---6-6-6-6-6--6-6-6--9-9-9-9-9--9-9-9--4-4-4-4-4--4-4-4--9-9-9--8-8-8-8-|
A|---6-6-6-6-6--6-6-6--7-7-7-7-7--7-7-7--x-x-x-x-x--x-x-x--9-9-9--9-9-9-9-|
E|---4-4-4-4-4--4-4-4--------------------6-6-6-6-6--6-6-6--7-7-7--7-7-7-7-|

Guitar 2 

     G#m               E                 F#                B     Bmaj7th-sus4
e|-----x-x-x-x--x-x-x--x-x-x-x-x--x-x-x----------------------------------|
B|-----4-4-4-4--4-4-4--9-9-9-9-9--9-9-9--x-x-x-x-x--x-x-x--x-x-x---x-x-x-|
G|-----4-4-4-4--4-4-4--9-9-9-9-9--9-9-9--6-6-6-6-6--6-6-6--4-4-4---9-9-9-|
D|-----6-6-6-6--6-6-6--9-9-9-9-9--9-9-9--4-4-4-4-4--4-4-4--4-4-4---8-8-8-|
A|-----------------------------------------------------------------------|
E|--/4-------------------------------------------------------------------|

Such an ugly thing for Someone so beautiful 
That everytime you're on his side 

Guitar 1 

     G#m               E                 F#/Bb             B    Bmaj7th-sus4
e|---4-4-4-4-4--4-4-4--------------------------------------7-7--7-7--|
B|---4-4-4-4-4--4-4-4--9-9-9-9-9--9-9-9--7-7-7-7-7--7-7-7--7-7--7-7--|
G|---4-4-4-4-4--4-4-4--9-9-9-9-9--9-9-9--6-6-6-6-6--6-6-6--8-8--9-9--|
D|---6-6-6-6-6--6-6-6--9-9-9-9-9--9-9-9--4-4-4-4-4--4-4-4--9-9--8-8--|
A|---6-6-6-6-6--6-6-6--7-7-7-7-7--7-7-7--x-x-x-x-x--x-x-x--9-9--9-9--|
E|---4-4-4-4-4--4-4-4--------------------6-6-6-6-6--6-6-6--7-7--7-7--|

Guitar 2 

     G#m               E                 F#                B     Bmaj7th-sus4
e|---x-x-x-x-x--x-x-x--x-x-x-x-x--x-x-x---------------------------------|
B|---4-4-4-4-4--4-4-4--9-9-9-9-9--9-9-9--x-x-x-x-x--x-x-x--x-x-x--x-x-x-|
G|---4-4-4-4-4--4-4-4--9-9-9-9-9--9-9-9--6-6-6-6-6--6-6-6--4-4-4--9-9-9-|
D|---6-6-6-6-6--6-6-6--9-9-9-9-9--9-9-9--4-4-4-4-4--4-4-4--4-4-4--8-8-8-|
A|----------------------------------------------------------------------|
E|----------------------------------------------------------------------|


[Chrous 3]


I know she knows that I'm not fond of asking 
True or false, it may be... well she's still out to get me

Guitar 1 

    E        B    D#m     E         B    D#m
e|-----------7-7--6-6-6-6-----------7-7--6-6-6-6---|
B|--9-9-9-9--7-7--7-7-7-7--9-9-9-9--7-7--7-7-7-7---|
G|--9-9-9-9--8-8--8-8-8-8--9-9-9-9--8-8--8-8-8-8---|
D|--9-9-9-9--9-9--8-8-8-8--9-9-9-9--9-9--8-8-8-8---|
A|--7-7-7-7--9-9--6-6-6-6--7-7-7-7--9-9--6-6-6-6---|
E|-----------7-7--6-6-6-6-----------7-7--6-6-6-6---|

Guitar 2 

    E        B    D#m     E         B    D#m
e|-----------7-7--6-6-6-6-----------7-7--6-6-6-6---|
B|--9-9-9-9--7-7--7-7-7-7--9-9-9-9--7-7--7-7-7-7---|
G|--9-9-9-9--8-8--8-8-8-8--9-9-9-9--8-8--8-8-8-8---|
D|--9-9-9-9--9-9--8-8-8-8--9-9-9-9--9-9--8-8-8-8---|
A|--7-7-7-7--9-9--6-6-6-6--7-7-7-7--9-9--6-6-6-6---|
E|-----------7-7--6-6-6-6-----------7-7--6-6-6-6---|


I know she knows that I'm not fond of asking 
True or false, it may be... she's still out to get me

Guitar 1 

    E        G#m    D#m    E        B    D#m
e|-----------4-4--x-6-6-6-----------7-7--6-6---|
B|--9-9-9-9--4-4--x-7-7-7--9-9-9-9--7-7--7-7---|
G|--9-9-9-9--4-4--x-6-6-6--9-9-9-9--8-8--8-8---|
D|--9-9-9-9--6-6--x-8-8-8--9-9-9-9--9-9--8-8---|
A|--7-7-7-7--6----x-6-6-6--7-7-7-7--9-9--6-6---|
E|-----------4------6-6-6-----------7-7--6-6---|

Guitar 2 

    E        G#m    D#m    E        B    D#m
e|-----------4-4--x-6-6-6-----------7-7--6-6---|
B|--9-9-9-9--4-4--x-7-7-7--9-9-9-9--7-7--7-7---|
G|--9-9-9-9--4-4--x-8-8-8--9-9-9-9--8-8--8-8---|
D|--9-9-9-9--6-6--x-8-8-8--9-9-9-9--9-9--8-8---|
A|--7-7-7-7--6----x-6-6-6--7-7-7-7--9-9--6-6---|
E|-----------4------6-6-6-----------7-7--6-6---|


[Outro]

Just don't let me down 
Just don't let me down 
Hold on to your kite 
Just don't let me down 
Just don't let me down 
Hold on to your kite 
Just don't let me down 
Just don't let me down 
Hold on to this kite 


Guitar 1 

    E         D#m       G#m
e|------------6-6-6-6---4-4-4-4-4-4-4-4----|
B|--9-9-9-9---7-7-7-7---4-4-4-4-4-4-4-4----|
G|--9-9-9-9---6-6-6-6---4-4-4-4-4-4-4-4----|
D|--9-9-9-9---8-8-8-8---6-6-6-6-6-6-6-6----|
A|--7-7-7-7---6-6-6-6---6-6-6-6-6-6-6-6----|
E|------------6-6-6-6---4-4-4-4-4-4-4-4----|

Guitar 2 

    E         D#m       G#m
e|------------6-6-6-6---4-4-4-4-4-4-4-4----|
B|--9-9-9-9---7-7-7-7---4-4-4-4-4-4-4-4----|
G|--9-9-9-9---6-6-6-6---4-4-4-4-4-4-4-4----|
D|--9-9-9-9---8-8-8-8---6-6-6-6-6-6-6-6----|
A|--7-7-7-7---6-6-6-6---6-6-6-6-6-6-6-6----|
E|------------6-6-6-6---4-4-4-4-4-4-4-4----|


The End 

By Mark Bryce



************************************

| x  Dead note
| h  Hammer-on
| p  Pull-off
| /  Slide up
| \  Slide down

************************************

Source 1 : https://tabs.ultimate-guitar.com/t/the_kooks/naive_ver4_tab.htm

NAIVE- THE KOOKS

A crackin’ tune from a great album! 
Tabbed by Tom Corley (tomcorley55@hotmail.com)

Chords Used;
  G#sus4  G#m  E  G#@  B   B/F#7  D#m7  
e|--4------4---7---4---7----7------6----|
B|--4------4---9---4---7----7------7----|
G|--6------4---9---6---8----9------6----|
D|--6------6---9---4---9----8------8----|
A|--6------6---7---4---9----9------6----|
E|--4------4---x---6---7----7------x----|

         
[Intro/Verse]
(palm muted, staccato) 

  G#sus4        E       G#@
e|------------------------------------------------------------------|
B|----------------------------------9-x-----------------------------|
G|-----6-x-6-6-x-6-xxx----9-x-9-9-x-9-x--------6-xx-6-6-4-6-4-xxx---|
D|-----6-x-6-6-x-6-xxx-/9-9-x-9-9-x-9-x--------4-xx-4-4-4-4-4-xxx---|
A|----(6)--------------/7----------------------4-xx-----------------|
E|--4--------------------------------------4h6----------------------|
    D  D   U U D D U D  D D   U U   D U        D    U U U D U 
  ‘Im not sayin it was your fault…’

   B       B/F#7
e|--------------------||
B|--------------------||
G|----8-xx-9-9-x-9-x--||
D|----9-xx-8-8-x-8-x--||
A|----9-xx-9-9-x-9-x--||
E|-/7-----------------||
      D    U U   D 
‘you’re so naïve yet so…’


[Chorus]
(let chords ring)

       E               B               D#m7            E
e|-----x----------------x---------x--------------------x-----------------|
B|-----9----------------7---------7--------------------9-----------------|
G|-----9----------------8---------6--------------------9-----------------|
D|-----9----------------9---------8--------------------9-----------------|
A|-----7----------------9---------6--------------------7-----------------|
E|-----x----------------7---------x--------------------x-----------------|
         ‘I know, she knows, I’m not fond of asking…     …true or false,    

            B             D#m7
e|----------x--------------x------------|
B|----------7--------------7------------|
G|----------8--------------6------------|
D|----------9--------------8------------|
A|----------9--------------6------------|
E|----------7--------------x------------|
   it may be, shes still out to get me’

     E         G#m       
e|---x---------x---------x--------------------x------------------|
B|---9---------4---------7--------------------9------------------|
G|---9---------4---------6--------------------9------------------|
D|---9---------6---------8--------------------9------------------|
A|---7---------6---------6--------------------7------------------|
E|---x---------4---------x--------------------x------------------|
‘I know, she knows, I’m not fond of asking…’    ‘…true or false,

            B             D#m7            E
e|----------x--------------x---------------x----||
B|----------7--------------7---------------9----||
G|----------8--------------6---------------9----||
D|----------9--------------8---------------9----||
A|----------9--------------6---------------7----||
E|----------7--------------x---------------x----||
   it may be, shes still out to get me’


[Bridge]
(strum)

e|---------------------------------------------------------||
B|---------------------------------------------------------||
G|--4---/6---/8---/9----/16-------4---/6---/8---/9----/11--||
D|--6---/8---/9---/11---/16-------6---/8---/9---/11---/11--||
A|---------------------------------------------------------||
E|---------------------------------------------------------||


[Outro]
(strum)

   E     D#m7  G#m   B
e|-7-----6-----4-----7-----------------||
B|-9-----7-----4-----7-----------------||
G|-9-----6-----4-----8-----------------||
D|-9-----8-----6-----9-----------------||
A|-7-----6-----6-----9-----------------||
E|-x-----x-----4-----7-----------------||
‘just don’t let me down…(hold on to this kite), just don’t let me down’


[Ending]

G#m

Source 2 : https://tabs.ultimate-guitar.com/t/the_kooks/naive_tab.htm