Tablature guitare : Yeah Yeah Yeahs – Maps

[Intro]

          fast picking
e|-10-10-10-10-10-10-10-10-10-10-10-10-10-10-10-10-10-etc-----------|
B|------------------------------------------------------------------|
G|------------------------------------------------------------------|
D|------------------------------------------------------------------|
A|------------------------------------------------------------------|
E|------------------------------------------------------------------|


[Verse 1]

e|------------------------------------------------------------------|
B|-12-12-12-12/8-8-8-8/12-12-12-12/15-15-15-15----------------------|
G|------------------------------------------------------------------|
D|------------------------------------------------------------------|
A|------------------------------------------------------------------|
E|------------------------------------------------------------------|


e|---------------------------------15-15-15-15----------------------|
B|-12-12-12-12/8-8-8-8/17-17-17-17----------------------------------|
G|------------------------------------------------------------------|
D|------------------------------------------------------------------|
A|------------------------------------------------------------------|
E|------------------------------------------------------------------|


[Chorus 1]

e|------------------------------------------------------------------|
B|------------------------------------------------------------------|
G|------------------------------------------------------------------|
D|-10-10-10-10-10-10-10-10/5-5-5-5-5-5-5-5--------------------------|
A|-10-10-10-10-10-10-10-10/5-5-5-5-5-5-5-5--------------------------|
E|-8--8--8--8--8--8--8--8-/3-3-3-3-3-3-3-3--------------------------|
  wait.... they dont      love you like I love

e|------------------------------------------------------------------|
B|------------------------------------------------------------------|
G|------------------------------------------------------------------|
D|-14-14-14-14-14-14-14-14/5-5-5-5-5-5-5-5--------------------------|
A|-14-14-14-14-14-14-14-14/5-5-5-5-5-5-5-5--------------------------|
E|-12-12-12-12-12-12-12-12/3-3-3-3-3-3-3-3--------------------------|
  wait....they dont       love you like i love you

e|------------------------------------------------------------------|
B|------------------------------------------------------------------|
G|------------------------------------------------------------------|
D|-10-10-10-10-10-10-10-10/9-9-9-9-9-9-9/10/12-12-12-12-12-12-12-12-|12
A|-10-10-10-10-10-10-10-10/9-9-9-9-9-9-9/10/12-12-12-12-12-12-12-12-|12
E|-8--8--8--8--8--8--8--8-/7-7-7-7-7-7-7/8-/10-10-10-10-10-10-10-10-|10
  maaaaaaaaaaaaaaaaaaaaaaaaaaaaaaaaaaaaaps wait............they dont

e|------------------------------------------------------------------|
B|------------------------------------------------------------------|
G|------------------------------------------------------------------|
D|-5-5-5-5-5-5-5-5--------------------------------------------------|
A|-5-5-5-5-5-5-5-5--------------------------------------------------|
E|-3-3-3-3-3-3-3-3--------------------------------------------------|
  love you like i love you


[Post-Chorus]

e|---19-19-19-17-15-15-15-15-12-12-12-12-15-15-15-15----------------|
B|------------------------------------------------------------------|
G|------------------------------------------------------------------|
D|------------------------------------------------------------------|
A|------------------------------------------------------------------|
E|------------------------------------------------------------------|


[Verse 2]

e|------------------------------------------------------------------|
B|-12-12-12-12/8-8-8-8/12-12-12-12/15-15-15-15----------------------|
G|------------------------------------------------------------------|
D|------------------------------------------------------------------|
A|------------------------------------------------------------------|
E|------------------------------------------------------------------|


e|---------------------------------15-15-15-15----------------------|
B|-12-12-12-12/8-8-8-8/17-17-17-17----------------------------------|
G|------------------------------------------------------------------|
D|------------------------------------------------------------------|
A|------------------------------------------------------------------|
E|------------------------------------------------------------------|


[Chorus 2]

e|------------------------------------------------------------------|
B|------------------------------------------------------------------|
G|------------------------------------------------------------------|
D|-10-10-10-10-10-10-10-10/5-5-5-5-5-5-5-5--------------------------|
A|-10-10-10-10-10-10-10-10/5-5-5-5-5-5-5-5--------------------------|
E|-8--8--8--8--8--8--8--8-/3-3-3-3-3-3-3-3--------------------------|
  wait.... they dont      love you like I love

e|------------------------------------------------------------------|
B|------------------------------------------------------------------|
G|------------------------------------------------------------------|
D|-14-14-14-14-14-14-14-14/5-5-5-5-5-5-5-5--------------------------|
A|-14-14-14-14-14-14-14-14/5-5-5-5-5-5-5-5--------------------------|
E|-12-12-12-12-12-12-12-12/3-3-3-3-3-3-3-3--------------------------|
  wait....they dont       love you like i love you

e|------------------------------------------------------------------|
B|------------------------------------------------------------------|
G|------------------------------------------------------------------|
D|-10-10-10-10-10-10-10-10/9-9-9-9-9-9-9/10/12-12-12-12-12-12-12-12-|12
A|-10-10-10-10-10-10-10-10/9-9-9-9-9-9-9/10/12-12-12-12-12-12-12-12-|12
E|-8--8--8--8--8--8--8--8-/7-7-7-7-7-7-7/8-/10-10-10-10-10-10-10-10-|10
  maaaaaaaaaaaaaaaaaaaaaaaaaaaaaaaaaaaaaps wait............they dont

e|------------------------------------------------------------------|
B|------------------------------------------------------------------|
G|------------------------------------------------------------------|
D|-5-5-5-5-5-5-5-5--------------------------------------------------|
A|-5-5-5-5-5-5-5-5--------------------------------------------------|
E|-3-3-3-3-3-3-3-3--------------------------------------------------|
  love you like i love you

e|------------------------------------------------------------------|
B|------------------------------------------------------------------|
G|------------------------------------------------------------------|
D|-10-10-10-10-10-10-10-10/5-5-5-5-5-5-5-5--------------------------|
A|-10-10-10-10-10-10-10-10/5-5-5-5-5-5-5-5--------------------------|
E|-8--8--8--8--8--8--8--8-/3-3-3-3-3-3-3-3--------------------------|
  wait.... they dont      love you like I love

e|------------------------------------------------------------------|
B|------------------------------------------------------------------|
G|------------------------------------------------------------------|
D|-14-14-14-14-14-14-14-14/5-5-5-5-5-5-5-5--------------------------|
A|-14-14-14-14-14-14-14-14/5-5-5-5-5-5-5-5--------------------------|
E|-12-12-12-12-12-12-12-12/3-3-3-3-3-3-3-3--------------------------|
  wait....they dont       love you like i love you

e|------------------------------------------------------------------|
B|------------------------------------------------------------------|
G|------------------------------------------------------------------|
D|-10-10-10-10-10-10-10-10/9-9-9-9-9-9-9/10/12-12-12-12-12-12-12-12-|12
A|-10-10-10-10-10-10-10-10/9-9-9-9-9-9-9/10/12-12-12-12-12-12-12-12-|12
E|-8--8--8--8--8--8--8--8-/7-7-7-7-7-7-7/8-/10-10-10-10-10-10-10-10-|10
  maaaaaaaaaaaaaaaaaaaaaaaaaaaaaaaaaaaaaps wait............they dont

e|------------------------------------------------------------------|
B|------------------------------------------------------------------|
G|------------------------------------------------------------------|
D|-5-5-5-5-5-5------------------------------------------------------|
A|-5-5-5-5-5-5------------------------------------------------------|
E|-3-3-3-3-3-3-3/12\3-----------------------------------------------|
  love you like i love you


[Solo]

e|------------------------------------------------------------------|
B|------------------------------------------------------------------|
G|------------------------------------------------------------------|
D|---------------------------9-9\-----------------------------------|
A|-/10-9-10-9\----------/10-9---------------/10-9-10-9\-------------|
E|-----------3-3-3-5-5-----------3-3-3-5-5-------------3-3-3-5-5----|


e|------------------------------------------------------------------|
B|------------------------------------------------------------------|
G|------------------------------------------------------------------|
D|-------9-9-0-7-0-5-0----------------------------------------------|
A|-/10-9------------------------------------------------------------|
E|---------------------3--------------------------------------------|


[Bridge]

e|---3-3-3-3-3-3-3-3-3-3-3-3-3-3-3-3-3-3-3-3-3-3-3-3-3-3-3-3--------|
B|--3-3-3-3-5-5-3-3---------3-5-5-5-5-5-5-5-3-3-3-3-3-3-3-3---------|
G|------------------0-0-0-0-----------------------------------------|
D|------------------------------------------------------------------|
A|------------------------------------------------------------------|
E|------------------------------------------------------------------|

e|---3-3-3-3-3-3-3-3-3----------------------------------------------|
B|----------3-5-5-5-5-----------------------------------------------|
G|--0-0-0-0---------------------------------------------------------|
D|------------------------------------------------------------------|
A|------------------------------------------------------------------|
E|------------------------------------------------------------------|


[Chorus 3]

e|------------------------------------------------------------------|
B|------------------------------------------------------------------|
G|------------------------------------------------------------------|
D|-10-10-10-10-10-10-10-10/5-5-5-5-5-5-5-5--------------------------|
A|-10-10-10-10-10-10-10-10/5-5-5-5-5-5-5-5--------------------------|
E|-8--8--8--8--8--8--8--8-/3-3-3-3-3-3-3-3--------------------------|
  wait.... they dont      love you like I love

e|------------------------------------------------------------------|
B|------------------------------------------------------------------|
G|------------------------------------------------------------------|
D|-14-14-14-14-14-14-14-14/5-5-5-5-5-5-5-5--------------------------|
A|-14-14-14-14-14-14-14-14/5-5-5-5-5-5-5-5--------------------------|
E|-12-12-12-12-12-12-12-12/3-3-3-3-3-3-3-3--------------------------|
  wait....they dont       love you like i love you

e|------------------------------------------------------------------|
B|------------------------------------------------------------------|
G|------------------------------------------------------------------|
D|-10-10-10-10-10-10-10-10/9-9-9-9-9-9-9/10/12-12-12-12-12-12-12-12-|12
A|-10-10-10-10-10-10-10-10/9-9-9-9-9-9-9/10/12-12-12-12-12-12-12-12-|12
E|-8--8--8--8--8--8--8--8-/7-7-7-7-7-7-7/8-/10-10-10-10-10-10-10-10-|10
  maaaaaaaaaaaaaaaaaaaaaaaaaaaaaaaaaaaaaps wait............they dont

e|------------------------------------------------------------------|
B|------------------------------------------------------------------|
G|------------------------------------------------------------------|
D|-5-5-5-5-5-5-5-5--------------------------------------------------|
A|-5-5-5-5-5-5-5-5--------------------------------------------------|
E|-3-3-3-3-3-3-3-3--------------------------------------------------|
  love you like i love you

e|------------------------------------------------------------------|
B|------------------------------------------------------------------|
G|------------------------------------------------------------------|
D|-10-10-10-10-10-10-10-10/5-5-5-5-5-5-5-5--------------------------|
A|-10-10-10-10-10-10-10-10/5-5-5-5-5-5-5-5--------------------------|
E|-8--8--8--8--8--8--8--8-/3-3-3-3-3-3-3-3--------------------------|
  wait.... they dont      love you like I love

e|------------------------------------------------------------------|
B|------------------------------------------------------------------|
G|------------------------------------------------------------------|
D|-14-14-14-14-14-14-14-14/5-5-5-5-5-5-5-5--------------------------|
A|-14-14-14-14-14-14-14-14/5-5-5-5-5-5-5-5--------------------------|
E|-12-12-12-12-12-12-12-12/3-3-3-3-3-3-3-3--------------------------|
  wait....they dont       love you like i love you

e|------------------------------------------------------------------|
B|------------------------------------------------------------------|
G|------------------------------------------------------------------|
D|-10-10-10-10-10-10-10-10/9-9-9-9-9-9-9/10/12-12-12-12-12-12-12-12-|12
A|-10-10-10-10-10-10-10-10/9-9-9-9-9-9-9/10/12-12-12-12-12-12-12-12-|12
E|-8--8--8--8--8--8--8--8-/7-7-7-7-7-7-7/8-/10-10-10-10-10-10-10-10-|10
  maaaaaaaaaaaaaaaaaaaaaaaaaaaaaaaaaaaaaps wait............they dont

e|------------------------------------------------------------------|
B|------------------------------------------------------------------|
G|------------------------------------------------------------------|
D|-5-5-5-5-5-5------------------------------------------------------|
A|-5-5-5-5-5-5------------------------------------------------------|
E|-3-3-3-3-3-3-3/12\3-----------------------------------------------|
  love you like i love you


[Solo]

e|------------------------------------------------------------------|
B|------------------------------------------------------------------|
G|------------------------------------------------------------------|
D|---------------------------9-9\-----------------------------------|
A|-/10-9-10-9\----------/10-9---------------/10-9-10-9\-------------|
E|-----------3-3-3-5-5-----------3-3-3-5-5-------------3-3-3-5-5----|


e|------------------------------------------------------------------|
B|------------------------------------------------------------------|
G|------------------------------------------------------------------|
D|-------9-9-0-7-0-5-0-5--------------------------------------------|
A|-/10-9---------------5--------------------------------------------|
E|---------------------3--------------------------------------------|



************************************

| /  Slide up
| \  Slide down

************************************

https://tabs.ultimate-guitar.com/y/yeah_yeah_yeahs/maps_ver7_tab.htm