Tablature guitare : Yeah Yeah Yeahs – Date With The Night

-----------------------------------------------
          YEAH YEAH YEAHS - DATE WITH THE NIGHT
     -----------------------------------------------

There are a couple other versions of this, but one's in Drop-D which isn't how it's 
and the other isn't at all accurate. I've played this song myself several times, and I'm 
sure this is how it is.


Standard Tuning (EADGBE)


[Intro]

e|------------------------------------------------------------|
B|------------------------------------------------------------|
G|------------------------------------------------------------|
D|------------------------------------------------------------|
A|------------------------------------------------------------|
E|0-0-15*-00--0-15*-00--0-15*-00--0-15*-00--0-15*-00--0-15*-00|

[Verse]

e|---------------------|
B|---------------------|
G|---------------------|
D|---------------------|
A|---------------------|
E|-0-0-15-17-0-0-10-12-| x4

e|------------------------|
B|------------------------|
G|------------------------|
D|-7--7--7--7--5--5--5--5-|
A|-7--7--7--7--5--5--5--5-|
E|-5--5--5--5--3--3--3--3-|

e|---------------------|
B|---------------------|
G|---------------------|
D|---------------------|
A|---------------------|
E|-0-0-15-17-0-0-10-12-| x6

e|-----------------------|
B|-----------------------|
G|-----------------------|
D|-9--9--9--9--7--7--7--7|
A|-9--9--9--9--7--7--7--7|
E|-7--7--7--7--5--5--5--5|

|1/\/\/\/\/\/\/\/\/\/\/\/\/\/\/\/|
|1/\/\/\/\/\/\/\/\/\/\/\/\/\/\/\/|
|1/\/\/\/\/\/\/\/\/\/\/\/\/\/\/\/|
|1/\/\/\/\/\/\/\/\/\/\/\/\/\/\/\/|
|1/\/\/\/\/\/\/\/\/\/\/\/\/\/\/\/|
|1/\/\/\/\/\/\/\/\/\/\/\/\/\/\/\/|
Sounds as crazy as it looks. Just slide back and forth while progressing up the neck of 
guitar.

Repeat Verse

Break:

 Tremolo Picking
|---------------|
|---------------|
|3//////////////|
|---------------|
|---------------|
|---------------|


[Bridge]

  P.M..................
e|---------------------|
B|---------------------|
G|---------------------|
D|---------------------|
A|---------------------|
E|-0-0-15-17-0-0-10-12-| x8

 Tremolo Picking
|------------------------|
|------------------------|
|33333333333/171717171717|
|------------------------|
|------------------------|
|------------------------|

Repeat Bridge

Repeat Intro

Repeat Verse

End on:

e|-------------------------------|
B|-------------------------------|
G|-------------------------------|
D|-9--9--9--9--12--12--12--12--14|
A|-9--9--9--9--12--12--12--12--14|
E|-7--7--7--7--10--10--10--10--12|


This is my second tab. If you liked it, please rate.



************************************

| *  Natural harmonic
| /  Slide up

************************************

Commentaire :

CORRECTION:

Power chords are an octave higher than on the tab. They should be:

E|--------------------------------|
B|--------------------------------|
G|14--14--14--14--12--12--12--12--|
D|14--14--14--14--12--12--12--12--|
A|12--12--12--12--10--10--10--10--|
E|--------------------------------|

-----------------------------------------

E|--------------------------------|
B|--------------------------------|
G|16--16--16--16--14--14--14--14--|
D|16--16--16--16--14--14--14--14--|
A|14--14--14--14--12--12--12--12--|
E|--------------------------------|

-----------------------------------------

E|------------------------------------|
B|------------------------------------|
G|16--16--16--16--19--19--19--19--21--|
D|16--16--16--16--19--19--19--19--21--|
A|14--14--14--14--17--17--17--17--19--|
E|------------------------------------|

https://tabs.ultimate-guitar.com/y/yeah_yeah_yeahs/date_with_the_night_ver3_tab.htm