Tablature guitare : Weezer – Island In The Sun

[Intro]
 
e|--3-3--3---5-5---2-2---3-3----|
B|--5-5--5---5-5---3-3---3-3----|
G|--4-4--4---5-5---2-2---4-4----| x4
D|------------------------------|
A|------------------------------|
E|------------------------------|


[Intro & Verse] 

Em   Am   D   G
 
e|--0-0-0---0-0-0---2-2-2---3-3-3----------|
B|--0-0-0---1-1-1---3-3-3---3-3-3----------|
G|--0-0-0---2-2-2---2-2-2---0-0-0----------| x10
D|--2-2-2---2-2-2---0-0-0---0-0-0----------|
A|--2-2-2---0-0-0---0-0-0---2-2-2----------|
E|--0-0-0---0-0-0---0-0-0---3-3-3----------|

(fill in)
e|-----------------------------------------|
B|-----8---8---10--10----7---7----8---8----|
G|---9---9----9---9----7---7----7---7------|
D|-----------------------------------------|
A|-----------------------------------------|
E|-----------------------------------------|


[Instrumental]

e|--3-3--3---5-5---2-2---3-3----|
B|--5-5--5---5-5---3-3---3-3----|
G|--4-4--4---5-5---2-2---4-4----| x4
D|------------------------------|
A|------------------------------|
E|------------------------------|


[Verse]

Em   Am   D   G
 
e|--0-0-0---0-0-0---2-2-2---3-3-3----------|
B|--0-0-0---1-1-1---3-3-3---3-3-3----------|
G|--0-0-0---2-2-2---2-2-2---0-0-0----------| x10
D|--2-2-2---2-2-2---0-0-0---0-0-0----------|
A|--2-2-2---0-0-0---0-0-0---2-2-2----------|
E|--0-0-0---0-0-0---0-0-0---3-3-3----------|


[Chorus] 

(Hard distortion)

e|-------------------------------------|
B|-------------------------------------|
G|--7-7-7-7-7-7-7-7--------------------| x2
D|--7-7-7-7-7-7-7-7---5-5-5-5-5-5-5-5--|
A|--5-5-5-5-5-5-5-5---5-5-5-5-5-5-5-5--|
E|--------------------3-3-3-3-3-3-3-3--|

e|---------------------------------------------------------------------|
B|---------------------------------------------------------------------|
G|-5-5-5-5-5-5-5-5---------------------7-7-7-7-7-7-7-7-7-7-7-7-7-7-7-7-|
D|-5-5-5-5-5-5-5-5---7-7-7-7-7-7-7-7---7-7-7-7-7-7-7-7-7-7-7-7-7-7-7-7-|
A|-3-3-3-3-3-3-3-3---7-7-7-7-7-7-7-7---5-5-5-5-5-5-5-5-5-5-5-5-5-5-5-5-|
E|-------------------5-5-5-5-5-5-5-5-----------------------------------|


[Instrumental]

e|--3-3--3---5-5---2-2---3-3----|
B|--5-5--5---5-5---3-3---3-3----|
G|--4-4--4---5-5---2-2---4-4----| x4
D|------------------------------|
A|------------------------------|
E|------------------------------|


[Solo]

 Em   Am   D   G
e|--------------------------------------------|
B|--------------------------------------------|
G|--7h9-7--5-\4/-5-\4~----2h4-2---------------|
D|-------------------------------5-4--5-5~----| x2
A|--------------------------------------------|
E|--------------------------------------------|


[Verse]

Em   Am   D   G
 
e|--0-0-0---0-0-0---2-2-2---3-3-3----------|
B|--0-0-0---1-1-1---3-3-3---3-3-3----------|
G|--0-0-0---2-2-2---2-2-2---0-0-0----------| x10
D|--2-2-2---2-2-2---0-0-0---0-0-0----------|
A|--2-2-2---0-0-0---0-0-0---2-2-2----------|
E|--0-0-0---0-0-0---0-0-0---3-3-3----------|


[Chorus] 

(Hard distortion)
                                      
e|-------------------------------------|
B|-------------------------------------|
G|--7-7-7-7-7-7-7-7--------------------| x2
D|--7-7-7-7-7-7-7-7---5-5-5-5-5-5-5-5--|
A|--5-5-5-5-5-5-5-5---5-5-5-5-5-5-5-5--|
E|--------------------3-3-3-3-3-3-3-3--|

e|---------------------------------------------------------------------|
B|---------------------------------------------------------------------|
G|-5-5-5-5-5-5-5-5---------------------7-7-7-7-7-7-7-7-7-7-7-7-7-7-7-7-|
D|-5-5-5-5-5-5-5-5---7-7-7-7-7-7-7-7---7-7-7-7-7-7-7-7-7-7-7-7-7-7-7-7-|
A|-3-3-3-3-3-3-3-3---7-7-7-7-7-7-7-7---5-5-5-5-5-5-5-5-5-5-5-5-5-5-5-5-|
E|-------------------5-5-5-5-5-5-5-5-----------------------------------|


[Outro]

e|--3-3--3---5-5---2-2---3-3----|
B|--5-5--5---5-5---3-3---3-3----|
G|--4-4--4---5-5---2-2---4-4----| 4x
D|------------------------------|
A|------------------------------|
E|------------------------------|

(fade out)

https://tabs.ultimate-guitar.com/w/weezer/island_in_the_sun_ver7_tab.htm