Tablature guitare : Walk The Moon – Shut Up And Dance

[Intro]

e|-------------------------------------------------|
B|-------14-------14-------------14-------14-------|
G|----13-------13-------13----13-------13-------13-| 5x
D|-15-------16-------16----15-------13-------13----|
A|-------------------------------------------------|
E|-------------------------------------------------|

Another Guitar just palm mutes the entire intro.


[Verse]

e|-----------------------------------------|
B|-----------------------------------------|
G|-----------------------------------------| repeat
D|-11-11-11-11-11-1111-11-11-11-11-11-1111-| numerous
A|-----------------------------------------| times
E|-----------------------------------------|

then
e|-------------------|
B|-------------------|
G|-10-10--9--9-5-5-5-|
D|-11-11-10-10-6-6-6-|
A|-11-11-10-10-6-6-6-|
E|--9--9--8--8-4-4-4-|


[Pre-Chorus]

(can either play it the way I tabbed it or from the suggested one from those in the comments.
Props to you guys.  whichever sounds better to you, play it and rock it hard!)

(You can omit the notes on the e and b strings if you want)
e|--------------6-6--9--9-6-4-2--------------4-4-4-4-4-4-4-4-|
B|-------11-11--6-6--9--9-6-4-2--------11-11-4-4-4-4-4-4-4-4-|
G|-10-10-11-11--6-6-10-10-6-5-3--10-10-11-11-5-5-5-5-5-5-5-5-|
D|-11-11-11-11--8-8-11-11-8-6-4--11-11-11-11-6-6-6-6-6-6-6-6-|
A|-11-11--9--9--8-8-11-11-8-6-4--11-11--9--9-6-6-6-6-6-6-6-6-|
E|--9--9--------6-6--9--9-6-4-2---9--9-------4-4-4-4-4-4-4-4-|

or

e|----------------------------------------------------|
B|----------------------------------------------------|
G|----------6-6-6-6-----------------------------------|
D|----------6-6-6-6--6-6-4------------6-6-6-6-6-6-6-6-|
A|-4-4-4-4--4-4/3-3--6-6-4---4-4-4-4--6-6-6-6-6-6-6-6-|
E|-1-1/2-2-----------4-4-2---1-1/2-2--4-4-4-4-4-4-4-4-|


[Chorus]

e|--------------------------------------------------------------------------|
B|--------------------------------------------------------------------------|
G|-6-6-6/11-11-11-11-11-----------------6-6-6/11-11-11-11-11----------------|
D|-6-6-6/11-11-11-11-11-8-8-8-6-6-6-6-6-6-6-6/11-11-11-11-11--8---8---6---6-|
A|-4-4-4/-9--9--9--9--9-8-8-8-6-6-6-6-6-4-4-4/-9--9--9--9--9--8---8---6---6-|
E|----------------------6-6-6-4-4-4-4-4-----------------------6---6---4---4-|


[Verse 2]

Same as verse 1 but starts with
e|-------------------------------------------------|
B|-------------------------------------------------|
G|-------------------------------------------------|
D|-11-11-11-11-11-1111-11-11-11-11-11-13b13b13b13b-|
A|-------------------------------------------------|
E|-------------------------------------------------|


[Pre-Chorus]

e|--------------6-6--9--9-6-4-2--------------4-4-4-4-4-4-4-4-|
B|-------11-11--6-6--9--9-6-4-2--------11-11-4-4-4-4-4-4-4-4-|
G|-10-10-11-11--6-6-10-10-6-5-3--10-10-11-11-5-5-5-5-5-5-5-5-|
D|-11-11-11-11--8-8-11-11-8-6-4--11-11-11-11-6-6-6-6-6-6-6-6-|
A|-11-11--9--9--8-8-11-11-8-6-4--11-11--9--9-6-6-6-6-6-6-6-6-|
E|--9--9--------6-6--9--9-6-4-2---9--9-------4-4-4-4-4-4-4-4-|

or

e|----------------------------------------------------|
B|----------------------------------------------------|
G|----------6-6-6-6-----------------------------------|
D|----------6-6-6-6--6-6-4------------6-6-6-6-6-6-6-6-|
A|-4-4-4-4--4-4/3-3--6-6-4---4-4-4-4--6-6-6-6-6-6-6-6-|
E|-1-1/2-2-----------4-4-2---1-1/2-2--4-4-4-4-4-4-4-4-|


[Chorus]

e|--------------------------------------------------------------------------|
B|--------------------------------------------------------------------------|
G|-6-6-6/11-11-11-11-11-----------------6-6-6/11-11-11-11-11----------------|
D|-6-6-6/11-11-11-11-11-8-8-8-6-6-6-6-6-6-6-6/11-11-11-11-11--8---8---6---6-|
A|-4-4-4/-9--9--9--9--9-8-8-8-6-6-6-6-6-4-4-4/-9--9--9--9--9--8---8---6---6-|
E|----------------------6-6-6-4-4-4-4-4-----------------------6---6---4---4-|


[Bridge]

e|-----------------|
B|-----------------|
G|-----------------|
D|-4-4-4-4-4-4-4-4-|
A|-4-4-4-4-4-4-4-4-|
E|-2-2-2-2-2-2-2-2-|

e|-9--9--9-9--9---9--9--11-11--11-        --9-9--9-9--9-9--11-11b11b11b11b11b11b-|
B|-x--x--x-x--x---x--x---x--x---x-     t  --x-x--x-x--x-x---x--x--x--x--x--x--x--|
G|-6--6--6-6--6---6--6---8--8---8- 3x  h  --6-6--6-6--6-6---8--8b-8b-8b-8b-8b-8b-|
D|--------------------------------     e  ---------------------------------------|
A|--------------------------------     n  ---------------------------------------|
E|--------------------------------        ---------------------------------------|

Synth
e|------------------------------------------------9~---|
B|----9-------9h11p9---------------9-------9h11p9------|
G|------10~----------11--10-8--------10~---------------|
D|-11-------------------------11~----------------------|
A|-----------------------------------------------------|
E|-----------------------------------------------------|
                                                               (Can either bend these 
notes or not)
e|---9---11----13----14----16----17----18-19br19br19br19br----9b-9b-11b-11b-13b-13b-16b16b16b16b16b16b-|
B|-------------------------------------------------------------x--x--x---x---x---x---x--x--x--x--x--x--|
G|-6---8----10----11----13----14----15------------------------6b-6b--8b--8b-10b-10b-13b13b13b13b13b13b-|
D|-----------------------------------------------------------------------------------------------------|
A|-----------------------------------------------------------------------------------------------------|
E|-----------------------------------------------------------------------------------------------------|


[Pre-Chorus]

e|--------------6-6--9--9-6-4-2--------------4-4-4-4-4-4-4-4-|
B|-------11-11--6-6--9--9-6-4-2--------11-11-4-4-4-4-4-4-4-4-|
G|-10-10-11-11--6-6-10-10-6-5-3--10-10-11-11-5-5-5-5-5-5-5-5-|
D|-11-11-11-11--8-8-11-11-8-6-4--11-11-11-11-6-6-6-6-6-6-6-6-|
A|-11-11--9--9--8-8-11-11-8-6-4--11-11--9--9-6-6-6-6-6-6-6-6-|
E|--9--9--------6-6--9--9-6-4-2---9--9-------4-4-4-4-4-4-4-4-|

or

e|----------------------------------------------------|
B|----------------------------------------------------|
G|----------6-6-6-6-----------------------------------|
D|----------6-6-6-6--6-6-4------------6-6-6-6-6-6-6-6-|
A|-4-4-4-4--4-4/3-3--6-6-4---4-4-4-4--6-6-6-6-6-6-6-6-|
E|-1-1/2-2-----------4-4-2---1-1/2-2--4-4-4-4-4-4-4-4-|


[Intro]

e|-------------------------------------------------|
B|-------14-------14-------------14-------14-------|
G|----13-------13-------13----13-------13-------13-| 5x
D|-15-------16-------16----15-------13-------13----|
A|-------------------------------------------------|
E|-------------------------------------------------|


[Chorus]

e|--------------------------------------------------------------------------|
B|--------------------------------------------------------------------------|
G|-6-6-6/11-11-11-11-11-----------------6-6-6/11-11-11-11-11----------------|
D|-6-6-6/11-11-11-11-11-8-8-8-6-6-6-6-6-6-6-6/11-11-11-11-11--8---8---6---6-|
A|-4-4-4/-9--9--9--9--9-8-8-8-6-6-6-6-6-4-4-4/-9--9--9--9--9--8---8---6---6-|
E|----------------------6-6-6-4-4-4-4-4-----------------------6---6---4---4-|


************************************
| /   Slide up
| \   Slide down
| b   Bend
| br  Bend release
| h   Hummer-on
| x   Dead note
************************************

Commentaires :

very nice tab. I don't know if the prechorus isn't right or if I'm just not playing it right? Also live they play a different part for the chorus (check the videos on youtube, guitar guy doesn't go below the 12th fret), but it sounds fair enough this way. Some help on the pre chorus would be helpfull 😉

 Pre-Chorus Correction:
e------------------------------------------------------------------------------
B------------------------------------------------------------------------------
G----------6-6/5-5-------------------------------------------------------------
D-3-3/4-4--6-6/5-5--6--4--3--3-3/4-4--6-6-6-6-6-6-6-6--------------------------
A-3-3/4-4--4-4/3-3--6--4--3--3-3/4-4--6-6-6-6-6-6-6-6--------------------------
E-1-1/2-2-----------4--2--1--1-1/2-2--4-4-4-4-4-4-4-4--------------------------

https://tabs.ultimate-guitar.com/w/walk_the_moon/shut_up_and_dance_tab.htm