Tablature guitare : U2 – With Or Without You

=-=-=-=-=-=-=-=-=-=-=-=-=-=
U2
With Or Without You
The Joshua Tree
Tabbed by Leandro Koren
leandro_koren@yahoo.com.ar
=-=-=-=-=-=-=-=-=-=-=-=-=-=

[Intro] (For all the song):

E|-|--10----------10-----------|-|
B|-|--------10----------10-----|-|
G|-|-----------11----------11--|-|
D|-|----12----------12---------|-|
A|-|---------------------------|-|
e|-|---------------------------|-|

Intro & Verse & Chorus:  D D/A Bm7 G/D
These are the chords.

E|-|--2--2--2--3--|-|
B|-|--3--3--3--3--|-|
G|-|--2--2--2--0--|-|
D|-|--0--X--4--0--|-|
A|-|--X--0--2--X--|-|
e|-|--X--X--X--X--|-|


[Verse]

 D      D/A                 Bm7
See the stone set in your eyes,
         G/D                 D
See the thorn twist in your side
D/A         Bm7  G/D
I wait for you


[Verse]

Sleight of hand and twist of fate
On a bed of nails she makes me wait
And I wait... without you


[Chorus]

With or without you.
With or without you.

Through the storm we reach the shore.
You give it all but I want more,
And I'm waiting for you.

With or without you, with or without you,
I can't live with or without you.


[Chorus]

E|-|----10---10-10---10----------------|-|
B|-|--8----8-------8----7--------------|-|
G|-|----------------------------0-0-0--|-|
D|-|----------------------0-0-0--------|-|
A|-|-----------------------------------|-|
e|-|-----------------------------------|-|

And you give yourself away.
And you give yourself away.
And you give,
And you give,
And you give yourself away.

My hands are tied,
My body bruised, she's got me with.
Nothing to win,
And nothing else to lose.

And you give yourself away.
And you give yourself away.
And you give,
And you give,
And you give yourself away.

With or without you,
With or without you.
I can't live,
With or without you.

Oohh...
Oohh...
Oohh...

With or without you,
With or without you.
I can't live,
With or without you.
With or without you.


[Solo]
They are these chords, just find the rhythm.
With delay.

      D           Dsus2       D/G         Dsus4/G
E|-|--2-2-2-2--|--0-0-0-0--|--2-2-2-2--|-h3-3-3-3--|-|
B|-|--3-3-3-3--|--3-3-3-3--|--3-3-3-3--|--3-3-3-3--|-|
G|-|--2-2-2-2--|--2-2-2-2--|--0-0-0-0--|--0-0-0-0--|-|
D|-|--0-0-0-0--|--0-0-0-0--|--0-0-0-0--|--0-0-0-0--|-|
A|-|-----------|-----------|-----------|-----------|-|
e|-|-----------|-----------|-----------|-----------|-|



************************************

| h  Hammer-on

************************************

Source 1 : https://tabs.ultimate-guitar.com/u/u2/with_or_without_you_tab.htm

*************************
-U2
-The Joshua Tree
-With Or Without You
*************************
 
[Intro, Verse 1 and 2]
Guitar 1: (Bono)

e|----10------------10-----------------|
B|------------10------------10---------|
G|----------------11------------11-----|
D|--------12------------12-------------|
A|-------------------------------------|
E|-------------------------------------|


[Intro, Verse 1 and 2]
Guitar 2: (The Edge)

e|--14--------15----17--------19----17--15--14---------|
B|-----------------------------------------------------|
G|-----------------------------------------------------|
D|-----------------------------------------------------|
A|-----------------------------------------------------|
E|-----------------------------------------------------|

 
[Chorus]
Guitar 1: (Bono)

e|----10------------10-----------------|
B|------------10------------10---------|
G|----------------11------------11-----|
D|--------12------------12-------------|
A|-------------------------------------|
E|-------------------------------------|
 

[Chorus]
Guitar 2: (The Edge)

e|-------10-----10---10------10-------------------------|
B|----8------8------------8-------7---------------------|
G|------------------------------------------------0-----|
D|---------------------------------------0--0-----------|
A|------------------------------------------------------|
E|------------------------------------------------------|
 

[Verse 3]
Guitar1: (Bono)

e|----10-------------10-----------------|
B|------------10-------------10---------|
G|----------------11-------------11-----|
D|--------12-------------12-------------|
A|--------------------------------------|
E|--------------------------------------|

 
[Verse 3]
Guitar 2: (The Edge)

e|-------10-----10---10------10-------------------------|
B|----8------8------------8-------7---------------------|
G|------------------------------------------------0-----|
D|---------------------------------------0--0-----------|
A|------------------------------------------------------|
E|------------------------------------------------------|
 

[Solo, Outro]
Guitar 1: (Bono)

e|-----2-2-2-2-----0-0-0-0------2-2-2-2-----3-3-3-3---------------|
B|--3-----------3-----------3------------3------------------------|
G|----------------------------------------------------------------|
D|----------------------------------------------------------------|
A|----------------------------------------------------------------|
E|----------------------------------------------------------------|

For the solo you can also strum these chords (Find the Pattern)
          
       D         Dsus2       D/G         Dsus4/G
e|--2-2-2-2--|--0-0-0-0--|--2-2-2-2--|--3-3-3-3--|
B|--3-3-3-3--|--3-3-3-3--|--3-3-3-3--|--3-3-3-3--|
G|--2-2-2-2--|--2-2-2-2--|--0-0-0-0--|--0-0-0-0--|
D|--0-0-0-0--|--0-0-0-0--|--0-0-0-0--|--0-0-0-0--|
A|-----------|-----------|-----------|-----------|
E|-----------|-----------|-----------|-----------|

 
[Outro]
Guitar 2: (The Edge)

e|-------10-----10---10------10-------------------------|
B|----8------8------------8-------7---------------------|
G|------------------------------------------------0-----|
D|---------------------------------------0--0-----------|
A|------------------------------------------------------|
E|------------------------------------------------------|

Source 2 : https://tabs.ultimate-guitar.com/u/u2/with_or_without_you_ver3_tab.htm

-------------------------------------------------------------------------------
                         With or Without you - U2
-------------------------------------------------------------------------------
Tabbed by:Snygging200
Email:Jonas-sjodin@hotmail.com

Intro:

e|--10----10----10----10----10----10----10----10-----|
B|----10----10----10----10----10----10----10----10---|
G|------9-----9-----9-----9-----9-----9-----9-----9--|
D|---------------------------------------------------|
A|---------------------------------------------------|
E|---------------------------------------------------|

Repeat:22 times


e|----10---10-10---10--------------|
B|--8----8-------8----7------------|
G|------------------------------0--|
D|------------------------0--------|
A|---------------------------------|
E|---------------------------------|

Repeat 8 times

e|----10---10-10---10----|
B|--8----8-------8----7--|
G|-----------------------|
D|-----------------------|
A|-----------------------|
E|-----------------------|

e|14--10--12--14--10----14--10--12--14--|
B|--------------------------------------|
G|--------------------------------------|
D|--------------------------------------|
A|--------------------------------------|
E|--------------------------------------|




e|--2--0----2--0--|
B|--0--0----0--0--|
G|----------------|
D|----------------|
A|----------------|
E|----------------|

e|----10---10-10---10--------------|
B|--8----8-------8----7------------|
G|------------------------------0--|
D|------------------------0--------|
A|---------------------------------|
E|---------------------------------|

Repeat 4 times

e|----10---10-10---10----|
B|--8----8-------8----7--|
G|-----------------------|
D|-----------------------|
A|-----------------------|
E|-----------------------|

e|--10-10--10--10-10-----10--10--10-10--|
B|----------------------9---9---9--8----|
G|--------------------------------------|
D|--------------------------------------|
A|--------------------------------------|
E|--------------------------------------|

Pause
e|--14--14-----|
B|---------15--|
G|-------------|
D|-------------|
A|-------------|
E|-------------|


e|----10---10-10---10--------------|
B|--8----8-------8----7------------|
G|------------------------------0--|
D|------------------------0--------|
A|---------------------------------|
E|---------------------------------|

Repeat:4 times

e|----10---10-10---10----|
B|--8----8-------8----7--|
G|-----------------------|
D|-----------------------|
A|-----------------------|
E|-----------------------|


e|--10----10----10----10----10----10----10----10-----|
B|----10----10----10----10----10----10----10----10---|
G|------9-----9-----9-----9-----9-----9-----9-----9--|
D|---------------------------------------------------|
A|---------------------------------------------------|
E|---------------------------------------------------|

Repeat:4 times


e|--2-2-2-2-0-0-0-0-2-2-2-2-3-3-3-3-2-2-2-2--|
B|-------------------------------------------|
G|-------------------------------------------|
D|-------------------------------------------|
A|-------------------------------------------|
E|-------------------------------------------|




e|----10---10-10---10--------------|
B|--8----8-------8----7------------|
G|------------------------------0--|
D|------------------------0--------|
A|---------------------------------|
E|---------------------------------|

Repeat:4 times


e|----10---10-----10-10-10-10-12-10-10-10-10--|
B|--7----7----7-8-----------------------------|
G|--------------------------------------------|
D|--------------------------------------------|
A|--------------------------------------------|
E|--------------------------------------------|



************************************

| /   slide up
| \   slide down
| h   hammer-on
| p   pull-off
| ~   vibrato
| +   harmonic
| x   Mute note
| b   Bend
| pb  Pre-bend
| br  Bend release
| pbr Pre-bend release
| brb Bend release bend

Source 3 : https://tabs.ultimate-guitar.com/u/u2/with_or_without_you_ver4_tab.htm