Tablature guitare : U2 – Ordinary Love

As performed on The Tonight Show With Jimmy Fallon

 


(Chords Used)

C#m, G#m, B, F#, E

     C#m                 G#m
E|-----------------------------------------------|
B|-----5-----5-------------4-----4---------------|
G|---6-----6-----6-------4-----4-----4-----------|
D|-----------------------------------------------|
A|-4-----4-----4---------------------------------|
E|---------------------4-----4-----4-------------|

     B                  F#
E|-----------------------------------------------|
B|-----4-----4--------------3-----3--------------|
G|---4-----4-----4--------4-----4-----4----------|
D|-----------------------------------------------|
A|-2-----2-----2---------------------------------|
E|---------------------2-----2-----2-------------|

On the last measure of the verse, replace the B with an E.
     E
E|-----------------------------------------------|
B|-----0-----0-----------------------------------|
G|---1-----1-----1-------------------------------|
D|-----------------------------------------------|
A|-2-----2-----2---------------------------------|
E|-----------------------------------------------|

Commentaire 1 :

Awesome work, but the last part should be :
E||---------------------|
B||------2----3---------|
G||----3----3------3----|
D||---------------------|
A||---------------------|
E||--2-----2-----2------| 

Commentaire 2 :

Also there is a slight variation in the 4th go around (just before the chorus). Instead of playing the B listed above, you arpeggiate an E chord instead:

E||---------------------|
B||-------0-----0-------|
G||-----1-----1-----1---|
D||---------------------|
A||--2------2-----2-----|
E||---------------------|
Source : https://tabs.ultimate-guitar.com/u/u2/ordinary_love_tab.htm