Tablature guitare : U2 – One (3 versions)

|--------------------------------------------------|
|-------5-------5----------------------------------|
|-------5-7p5h7-5----5h7p5-------------------------|
|-----------------------------------12-10h12p10-12-|
|-----------------------------------12-10h12p10-12-|
|-3/5-------------------------8/10-----------------|

|---0-------0--------------------------|
|---1-3p1h3-1-1h3p1-----3----------3---|
|---2----------------/4-4-4h5p4h5--4---|
|-3------------------/5------------5---|
|--------------------------------------|
|--------------------------------------|

Source 1 : https://tabs.ultimate-guitar.com/u/u2/one_ver3_tab.htm

Lead Parts:
Lead plays the same chords as guitar 2 when not playing a lead part.  Some bits are palmed.

intro:

-------------------------------------------------------------------------|
-------------------------------------------------------------------------|
---------5/9-7-9-7-9----7-5-7-5-7-7--9-7-9-7-9-7-------------------------|
-5h7-----------------7--7-5-7-5-7-7--7-7-7-7-7-7--7/9 -10- 9-10 9--10- 9-| X5
-----0---------------5------------8---------------8/10-10-10-10-10-10-10-|
-------------------------------------------------------------------------|
(last 3x played, above is adapted a bit)

-------------------------------------------------------------|
-1/5-5-5-3-2-1---1/5-5-5-3-1----1/5-5-5-3-2-1--1/5-5-5-3-2-3-|
-----------------------------2-------------------------------|
-------------------------------------------------------------|  X2
-------------------------------------------------------------|
-------------------------------------------------------------|

-----------------------------------------------------------|
-1/5---3-2-1-----1/5---3-1-----1/5---3-2-1-----1/5---3-2-3-|
---------------------------2-------------------------------|
-----------------------------------------------------------|  X4
-----------------------------------------------------------|
-----------------------------------------------------------|

solo:
----------------------|
-/7-5-5-7-7-5-5-6-6-7-|
----------------------|
----------------------|
----------------------|
----------------------|

outro:
----12-------------12-------------12-------------12-13-12-|
-15----15-13-13-15----15-13-13-15----15-13-13-15----------|
----------------------------------------------------------|
----------------------------------------------------------|
----------------------------------------------------------|
----------------------------------------------------------|
repeat outro until end, and end on first note.


Guitar 2:
(bono plays his gorgious green hollow-body for this while he sings)

intro:

Am              Dsus2
 Is it getting better?

Fmaj7                G
 Or do you feel the same?

Am                Dsus2
 Will it make it easier on you now

Fmaj7                   G
 You've got someone to blame?

            C        Am
 You say   one love   one life

Fmaj7               C
 When it's one need  in the night

 One love   we get to share it

Fmaj7                     C                Am  Dsus2  Fmaj7  G
 it leaves you baby if you don't care for it

Am         Dsus2
 Did I disappoint you?

Fmaj7                       G
 Or leave a bad taste in your mouth?

Am                       Dsus2
 You act like you never had love

Fmaj7                    G
 and you want me to go without

          C        Am
 Well it's too late  tonight

Fmaj7                   C
 to drag the past out into the light

                    Am
 We're one, but we're not the same

         Fmaj7                C
 We get to carry each other carry each other

   Am  Dsus2  Fmaj7  G
 One

Am                         Dsus2
 Have you come here for forgiveness?

Fmaj7                       G
 Have you come to raise the dead?

Am                           Dsus2
 Have you come here to play Jesus?

Fmaj7                  G
 To the lepers in your head?

C                    Am
 Did I ask too much?  More than a lot?

Fmaj7                        C
 You gave me nothing now it's all I got

                   Am
 We're one but we're not the same

       Fmaj7                     C
 Well we hurt each other then we do it again

       C                   Am
 You say Love is a temple, Love a higher law

C                   Am
 Love is a temple, Love the higher law

      C                    G
 You ask me to enter, but then you make me crawl

                        Fmaj7
 And I can't be holding on  to what you got

                  C           Am
 When all you is hurt  One love  One blood

Fmaj7                C
 One life you got to do what you should

         Am             Fmaj7      C
 One life  with each other  sisters  brothers

        Am
 One life but we're not the same

         Fmaj7                 C
 We get to carry each other carry each other

   C  Am  Fmaj7  C  C  Am  Fmaj7  C
 One   One   (lots of Ooo's and Ohh's and vocal ranges)
(repeat until end, finish with C)


 Am  Dsus2  Fmaj7  G   C
-0-----0-----0-----3---0-|
-1-----3-----1-----0---1-|
-2-----2-----2-----0---0-|
-2-----0-----3-----0---2-|
-0-----------------2---3-|
-------------------3-----|

Source 2 : https://tabs.ultimate-guitar.com/u/u2/one_ver4_tab.htm

"One" live as performed by u2 off the album: Achtung baby

Tune down 1/2 a step

[Intro]
(I think edge plays it like 8x before bono starts to sing)

E|-------------------------------------------------------|
B|-------------5-5---------------------------------------|
G|-------------7-5h7p5h7---------------------------------|
D|----------------------------------------12-10h12p10h12-|
A|----------------------------------------12-10h12p10h12-|
E|----1/5-----------------------3/10---------------------|


E|---------------(fast)----------------------------------|
B|-----3-1h3p1h3--1h3p1-1/3------------------------------|
G|-----2-2--------2-----2/4--5h4p5h4---------------------|
D|0-3-------------------3/5--5h5p5h5---------------------|slide to beginning
A|-------------------------------------------------------|
E|-------------------------------------------------------|

"well its too late" part : 2x

E|------------------------------------------------------|
B|------5-3h5p3h5------------------5-3h5p3h5------------|
G|------5-5------------------------5-5------------------|  part A
D|------------------------------------------------------|
A|--3--------------------3-2-0--------------------------|
E|------------------------------------------------------|


E|------------------------------------------------------|
B|-------5-3h5p3h5-----------------5-3h5p3h5------------|
G|-------5-5-----------------------5-5------------------|
D|--3---------------------------------------------------|
A|--------------------------3---------------------------|
E|------------------------------------------------------|


"have u come here for forgiveness " part 3x
W/little distortion
(listen for how many times to mute before hitting notes)

E|----------------------------------------------------------|
B|----------------------------------------------------------| part b
G|x--x--7--5--x--x--7--5--x--x--x--x--x--x--x--x------------|
D|x--x--7--5--x--x--7--5--x--x--3--3--x--x--5--5------------| then repeat
A|x--x--x--x--x--x--x--x--x--x--3--3--x--x--5--5--3-3h5p3---|
E|x--x--x--x--x--x--x--x--x--x--x--x--x--x--x--x-5--------5-|


[Part A] x2


[Mini solo]

(echo little distortion)
(let echo ring after 9     10    11    12)

e|---------------------------------------------------|
B|---------------------------------------------------|
G|-12-12--9--------10--------11----------12----------|
D|---------------------------------------------------|
A|---------------------------------------------------|
E|---------------------------------------------------|


[Part B] x2


[Part A] x2


Then after part a play again but its changed alittle bit
(play once)
E|-------------------------------------------------------|
B|----5-3h5h3h5------------------------------------------|
G|----5-5------------------------------------------------|
D|-------------------------------------------------------|
A|-3--------------3-2-0----0-2-3----3-2-0----0-2-3-------|
E|-------------------------------------------------------|

Then this part (i always play this part differently just
Arpeggieate and strum the way u want or u think u hear it..
But its the right chords...

E|-1/3--3-----3--------3-----3-------31---1-----1------1---1----1-------|
B|-1/3--3-------3------3-------3-----31---1-------1----1---1------1-----|
G|-2/4--4-4h5-----5p4--4-4h5-----5p4-42h3-3-2h3----3p2-2h3-3-2h3---3p2--|
D|----------------------------------------------------------------------|
A|----------------------------------------------------------------------|
E|----------------------------------------------------------------------|


Part right after "when all u got is hurt"

E|12-12-12-12-12-12-12-12-13-12-| listen for how many times this is played
B|13-13-13-13-13-13-13-13-13-13-|
G|12-12-12-12-12-12-12-12-12-12-|
D|------------------------------|
A|------------------------------|
E|------------------------------|

Immediately after play this:

E|--------12~~-----------------  listen for this E|---12-13-12-----|
B|-15~~----------15~~-----13~~-                  B|15----------13--|
G|-----------------------------------------------------------------|
D|-----------------------------------------------------------------|
A|-----------------------------------------------------------------|
E|-----------------------------------------------------------------|

Play this

E|------15-------15 repeat many times E|15-15-15-15-| and continue
B|12-13-13-12-13-13 play this:        B|13-12-13-13-| riff before
G|------12-------12                   G|12-12-14-12-|
D|-----------------                   D|------------|
A|-----------------                   A|------------|
E|-----------------                   E|------------|

Again listen for the changes i can only type so much :o)
 then end song  with:

E|-------12~~--------------   then     --12-13-13----|
B|-15~~---------15~~---13~~            15---------13-|
G|---------------------------------------------------|
D|---------------------------------------------------|
A|---------------------------------------------------|
E|---------------------------------------------------|


[Ending]

e|----------|
B|-13h15p13-|
G|----------|
D|----------|
A|----------|
E|----------|



************************************

| x  Dead note
| h  Hammer-on
| p  Pull-off
| /  Slide up
| ~  Vibrato 

************************************

Commentaire : 

e|-----------------------------------------------------------------------------------------------------|
B|------5-------5--------------------------------------------------------------------------------------|
G|------7-5h7p5---(5h7p5)------------------------------------------------------------------------------|
D|------------------------------12-10h12p10-12-----14----------14--------------------------------------|
A|------------------------------12-12h12p10-12-----15-15h17p15----(15h17p15)----------14--15p14-15-14--|
E|--1/5--------------------3/10-----------------13----------------------------(14h)15---15-------------|

Source 3 : https://tabs.ultimate-guitar.com/u/u2/one_ver5_tab.htm