Tablature guitare : The XX – Angels

[Intro/ Verse Riff] (Lots of reverb, naturally.)

E|----------------------------------------------------------------------|
B|----------------------------------14------14------14------14----------|
G|--11------11------11------11----------14------14------14------14------|
D|------12------12------12------12--------------------------------------|
A|----------------------------------------------------------------------|
E|----------------------------------------------------------------------|

E|------------------------------------------------------------------|
B|------------------------------------------------------------------|
G|--13------13------13------13------11------11------11------11------|
D|------14------14------14------14------12------12------12------12--|
A|------------------------------------------------------------------|
E|------------------------------------------------------------------|


[Chorus] - 'They would be as in love with you as I am'

E|---------------|
B|---------------|
G|---------------|
D|---------------|  x3
A|--9-/-11-/-16--|
E|---------------|


[Second verse] is the same as the first until 'The end comes too soon, like dreaming of angels'

E|--------------------------------------------------------------------------|
B|----------------------------------14------14------14------14------14------|
G|--11------11------11------11----------14------14------14------14------14--|
D|------12------12------12------12------------------------------------------|
A|--------------------------------------------------------------------------|
E|--------------------------------------------------------------------------|

E|--------------------------------------------------------------------------|
B|--14------14------14------14------14------14------14------14------14------|
G|------14------14------14------14------14------14------14------14------14--|
D|--------------------------------------------------------------------------|
A|--------------------------------------------------------------------------|
E|--------------------------------------------------------------------------|

E|------------------|
B|--14------14------|
G|------14------14--|
D|------------------|
A|------------------|
E|------------------|


[Bridge] - 'And leaving without them'

E|---------------|
B|---------------|
G|---------------|
D|---------------|
A|--16-/-11-/-9--|
E|---------------|


[Second Chorus]

E|----------------------------------------------------------------------|
B|----------------------------------14------14------14------14----------|
G|--11------11------11------11----------14------14------14------14------|
D|------12------12------12------12--------------------------------------|
A|----------------------------------------------------------------------|
E|----------------------------------------------------------------------|

E|------------------------------------------------------------------|
B|------------------------------------------------------------------|
G|--13------13------13------13------11------11------11------11------|
D|------14------14------14------14------12------12------12------12--|
A|------------------------------------------------------------------|
E|------------------------------------------------------------------|


[Final Verse] 'And with words unspoken' is a stripped down version of the previous verses.

E|----------------------------------|
B|------14--------------14----------|
G|--11------13--11--11------13--11--|
D|----------------------------------|
A|----------------------------------|
E|----------------------------------|

And there's no guitar in the final chorus so that's it; hope this helps.



************************************

| /  Slide up

************************************

https://tabs.ultimate-guitar.com/t/the_xx/angels_tab.htm