Tablature guitare : The White Stripes – You Don’t Know What Love Is Just Do As You’re Told

[Intro]
(Guitar 1)
   A5              E5              D5              A5
e|---------------------------------------------------------------------|
B|---------------------------------2-----------------------------------|
G|-2-------------------------------2---------------2----2--------------|
D|-2---------------2----2----------0---------------2----2--------------|
A|-0---------------2----2--------------------------0----0--------------|
E|-----------------0----0----------------------------------------------|

(Guitar 2)
e|-------------------------0----------3---3p2--------------0-----------|
B|-----2---2--0-----------------------3---3------------0h2---2p0-------|
G|-----2---2--0-------0h1----------------------------------------2(~)--|
D|---------------------------------------------------------------------|
A|---------------------------------------------------------------------|
E|---------------------------------------------------------------------|

(Guitar 1)
   A5              E5              D5              A5
e|---------------------------------------------------------------------|
B|---------------------------------2-----------------------------------|
G|-2-------------------------------2---------------2----2--------------|
D|-2---------------2----2----------0---------------2----2--------------|
A|-0---------------2----2--------------------------0----0--------------|
E|-----------------0----0----------------------------------------------|

(Guitar 2)
e|-------------------------0----------3---3p2--------------0-----------|
B|-----2---2--0-----------------------3---3------------0h2---2p0-------|
G|-----2---2--0-------0h1----------------------------------------2(~)--|
D|---------------------------------------------------------------------|
A|---------------------------------------------------------------------|
E|---------------------------------------------------------------------|

(Guitar 1)
   A5              E5              D5              A5
e|---------------------------------------------------------------------|
B|---------------------------------2-----------------------------------|
G|-2-------------------------------2---------------2----2--------------|
D|-2---------------2----2----------0---------------2----2--------------|
A|-0---------------2----2--------------------------0----0--------------|
E|-----------------0----0----------------------------------------------|

(Guitar 2)
e|---------2-----------------0---------3---3p2--------------0-----------|
B|-----0h2---2p0-----------------------3---3------------0h2---2p0-------|
G|---------------2--0h1-------------------------------------------2(~)--|
D|-----------------------2----------------------------------------------|
A|----------------------------------------------------------------------|
E|----------------------------------------------------------------------|

(Guitar 1)
   A5              E5              D5              A5 (let ring)
e|----------------------------------------------------|
B|---------------------------------2------------------|
G|-2-------------------------------2---------------2--|
D|-2---------------2----2----------0---------------2--|
A|-0---------------2----2--------------------------0--|
E|-----------------0----0-----------------------------|

(Guitar 2)
e|-------------------------0----------3---3p2---------|
B|-----2---2--0-----------------------3---3-----------|
G|-----2---2--0-------0h1-----------------------------|
D|----------------------------------------------------|
A|----------------------------------------------------|
E|----------------------------------------------------|

[Riff]
(Guitar 1)
   A
e|------0-----------------0----------|
B|-0h2----2p0--------0h2-----2p0-----|
G|--------------2-----------------2--|
D|-----------------------------------|
A|-----------------------------------|
E|-----------------------------------|

(Guitar 2)
e|-----------------------------------|
B|------5-----------------5----------|
G|-4h6-----6p4-------4h6-----6p4-----|
D|--------------7-----------------7--|
A|-----------------------------------|
E|-----------------------------------|

[Verse 1]
   A5 N.C.            E5   E5 N.C.         D5 N.C.        A5 A5 N.C.
In some respects I suspect you've got a respectable side
     A5 N.C.               E5 E5 N.C.    D5 N.C.          E5 E5 N.C.
When pushed and pulled and pressured you seldom run and hide
             A5 N.C.        E5  E5 N.C.      C5       G5      A5
But it's for someone else's benefit, not for what you want to do
                     E5                        D5                 A5
Until I realize that you've realized I'm gonna say these words to you

[Organ]
e|--------------------|
B|-3---3--2--0--2-----|
G|-----------------2--|
D|--------------------|
A|--------------------|
E|--------------------|

[Chorus]
      A5 N.C.             E5   E5 N.C. D5 N.C.        A5 A5 N.C.
Yeah, you don't know what love is, you do as you're told
A5 N.C.            E5 E5 N.C.                D5 N.C.   E5 E5 N.C.
Just as a child of ten might act, but you're far too old
           A5 N.C.     E5  E5 N.C.     C5      G5    A5
You're not hopeless or helpless, and I hate to sound cold
    E5                  G5
But you don't know what love is,

e|----------------------------|
B|----------------------------|
G|-----------------0--0h2--0--|
D|--------0--0h2--------------|
A|-0h2------------------------|
E|----------------------------|

you just do as you're told

[Instrumental]
[Break 2]
Hey!
(2x:)
E5 E5 E5   G5 G5 G5   A5  A5         E5* E5* E5*   C5 C5 C5   A5   A5
Come on!
E5 E5 E5   G5 G5 G5   A5  A5         E5* E5* E5*   C5 C5 C5   A5   A5
E5 E5 E5
E5 E5 E5   G5 G5 G5   A5  A5         E5* E5* E5*   C5 C5 C5   A5   A5 (let ring)

[Riff]
[Verse 2]
I can see your man can't help but win any problems when they arise
But in his mind there can be no sin if you never criticize
You just keep on repeatin' all those empty "I love you"'s
Until you see you deserve better I'm gonna lay right into to you

   8^                |/\/\/\/|
e|---------------------------|
B|-3---3--2--0--2------------|
G|-----------------2---------|
D|---------------------------|
A|---------------------------|
E|---------------------------|

[Chorus]
      A5 N.C.             E5   E5 N.C. D5 N.C.        A5 A5 N.C.
Yeah, you don't know what love is, you do as you're told
A5 N.C.            E5 E5 N.C.                D5 N.C.   E5 E5 N.C.
Just as a child of ten might act, but you're far too old
           A5 N.C.     E5  E5 N.C.     C5      G5    A5
You're not hopeless or helpless, and I hate to sound cold
    E5                  G5          E5                  G5
But you don't know what love is, no you don't know what love is
    E5                  G5      G5 N.C.
No, you don't know what love is,        you just do as you're told

[Break 2]
(Guitar 1)
   A5              E5              D5              A5
e|---------------------------------------------------------|
B|---------------------------------2-----------------------|
G|-2-------------------------------2---------------2----2--|
D|-2---------------2----2----------0---------------2----2--|
A|-0---------------2----2--------------------------0----0--|
E|-----------------0----0----------------------------------|

(Guitar 2)
   8^^
e|---------------------------------------------------------|
B|----5--5p3-2--3--3----5~------------3-2-3---5------------|
G|---------------------------------------------------------|
D|---------------------------------------------------------|
A|---------------------------------------------------------|
E|---------------------------------------------------------|
                                              Yeah, do as you're told

(Guitar 1)
   A5              E5              D5              A5
e|-----------------------------------------------------------------|
B|---------------------------------2-------------------------------|
G|-2-------------------------------2---------------2----2----------|
D|-2---------------2----2----------0---------------2----2----------|
A|-0---------------2----2--------------------------0----0----------|
E|-----------------0----0------------------------------------------|

(Guitar 2)
   8^^
e|-----------------------------------------------------------------|
B|----5--5p3-2--3--3b5r3-----3-2-3-3b5r3--2-3-5-3-2b5r3------------|
G|-----------------------2~------------------------------2--4--2~--|
D|-----------------------------------------------------------------|
A|-----------------------------------------------------------------|
E|-----------------------------------------------------------------|
                                                                 Yeah

(Guitar 1)
   A5              E5              D5              A5
e|------------------------------------------------------------------|
B|---------------------------------2--------------------------------|
G|-2-------------------------------2---------------2----2-----------|
D|-2---------------2----2----------0---------------2----2-----------|
A|-0---------------2----2--------------------------0----0-----------|
E|-----------------0----0-------------------------------------------|

(Guitar 2)
   8^^
e|---5b7--5-3------3----5-------7--7-8-7-5-5-7p5-3-3----5--/7---3~--|
B|------------5--5--------------------------------------------------|
G|------------------------------------------------------------------|
D|------------------------------------------------------------------|
A|------------------------------------------------------------------|
E|------------------------------------------------------------------|

(Guitar 1)
   A5              E5              D5              A5
e|------------------------------------------------------------|
B|---------------------------------2--------------------------|
G|-2-------------------------------2---------------2----2-----|
D|-2---------------2----2----------0---------------2----2-----|
A|-0---------------2----2--------------------------0----0-----|
E|-----------------0----0-------------------------------------|

(Guitar 2)
   8^^
e|----7--5----------------------------------------------------|
B|----------8--5---7h8--7--3(\2)---0-2-3--5~--5\0--0h1p0------|
G|--------------------------------------------------------2~--|
D|------------------------------------------------------------|
A|------------------------------------------------------------|
E|------------------------------------------------------------|

(Guitar 1)
A5              E5              D5              A5
e|------------------------------------------------------------|
B|---------------------------------2--------------------------|
G|-2-------------------------------2---------------2----2-----|
D|-2---------------2----2----------0---------------2----2-----|
A|-0---------------2----2--------------------------0----0-----|
E|-----------------0----0-------------------------------------|

(Guitar 2)
   8^^
e|----7h8p7--------7h8p7h8p7----------------------------------|
B|----------10--10-----------10----8b10r8--5(\)----3-5--7\5~--|
G|-------------------------------x----------------------------|
D|-----------------------------x------------------------------|
A|------------------------------------------------------------|
E|------------------------------------------------------------|

(Guitar 1)
   A5              E5              D5              A5 (let ring)
e|--------------------------------------------------------|
B|---------------------------------2----------------------|
G|-2-------------------------------2---------------2------|
D|-2---------------2----2----------0---------------2------|
A|-0---------------2----2--------------------------0------|
E|-----------------0----0---------------------------------|

(Guitar 2)
   8^^
e|----------------------------------5b7r5-3---------------|
B|----------3--5-------------3-3-5----------5-3-2h3p2-----|
G|-----4b6--------------4b6---------------------------2~--|
D|--------------------------------------------------------|
A|--------------------------------------------------------|
E|--------------------------------------------------------|

   A
e|------0-----------------0----------|
B|-0h2----2p0--------0h2-----2p0-----|
G|--------------2-----------------2--|
D|-----------------------------------|
A|-----------------------------------|
E|-----------------------------------|
  One,    two,     three,    four

A5


************************************

| p  Pull-off
| h  Hammer-on
| ~  Vibrato
| r  Release
| b  Bend
| /  Slide up
| \  Slide down
| x  Dead note

************************************

https://tabs.ultimate-guitar.com/t/the_white_stripes/you_dont_know_what_love_is_you_just_do_as_youre_told_tab.htm