Tablature guitare : The White Stripes – The Hardest Button To Button

Artist: The White Stripes.
Song: The Hardest Button to Button.
Album: Elephant.
Transcribed by: Paul.
E-mail: lplplplplplp@linkinpark.com


This is a great song! One of my favorite on the album. Well Im almost 100% sure
that this tab is correct. The song starts of with a bass playing, Im starting it
where the guitar starts. Its played in standard tuning (E-A-D-G-B-E).


[Intro]

E|---------------------------------------------------------------|
B|---------------------------------------------------------------|
G|---2------5------2------5------2------5------4------7----------|
D|----2------5------2------5------2------5------4------7---------|
A|-0---0--3---3--0---0--3---3--0---0--3---3--2---2--5---5--------|
E|---------------------------------------------------------------|


   Chords.Listen to the cd to get the rhtyhm and timing.
E|---------------------------------------|
B|---------------------------------------|
G|-2-2-2-2--5-5-5-5-4-4-4-4-3-3-3-3------|
D|-2-2-2-2--5-5-5-5-4-4-4-4-3-3-3-3------|
A|-0-0-0-0--3-3-3-3-2-2-2-2-1-1-1-1------|
E|---------------------------------------|


[Chorus]

E|----------------------------------------------------------------------------|
B|----------------------------------------------------------------------------|
G|-2-2-2-2--5-5-5-5--2-2-2-2--5-5-5-5--2-2-2-2--5-5-5-5--4-4-4-4--3-3-3-3-----|
D|-2-2-2-2--5-5-5-5--2-2-2-2--5-5-5-5--2-2-2-2--5-5-5-5--4-4-4-4--3-3-3-3-----|
A|-0-0-0-0--3-3-3-3--0-0-0-0--3-3-3-3--0-0-0-0--3-3-3-3--2-2-2-2--1-1-1-1-----|
E|----------------------------------------------------------------------------|


Thats the whole song! You just keep repeating all those parts.
You'll have to listen to the to find out the timing.

https://tabs.ultimate-guitar.com/t/the_white_stripes/the_hardest_button_to_button_tab.htm