Tablature guitare : The White Stripes – I Think I Smell A Rat

artist: white stripes
album: white blood cells
song: i think i smell a rat
track: 11
tabbed by: geekynerd

3rd tab and counting...

standard tuning

chords used:
low to high
Am 002210
G  320003
Em 022000

[Riff 1]
    1  +  2  +  3  +  4
e|--5--7--8--7--5-----5--|
B|-----------------8-----|
G|-----------------------|
D|-----------------------|
A|-----------------------|
E|-----------------------|

[Riff 2]
e|--0--1--3--1--0-----1--|
B|-----------------3-----|
G|-----------------------|
D|-----------------------|
A|-----------------------|
E|-----------------------|

[Rhy. fig. 1]
    Am          G     Am
e|--0--0--0-----3-----0--|
B|--1--1--1-----0-----1--|
G|--2--2--2-----0-----2--|
D|--2--2--2-----0-----2--|
A|--0--0--0-----2-----0--|
E|--0--0--0-----3-----0--|

[Rhy. fig. 2]
    Am          G     Em
e|--0--0--0-----3-----0--|
B|--1--1--1-----0-----0--|
G|--2--2--2-----0-----0--|
D|--2--2--2-----0-----2--|
A|--0--0--0-----2-----2--|
E|--0--0--0-----3-----0--|

[Rhy. fig. 3]
    Em          G     Am
e|--0--0--0-----3-----0--|
B|--0--0--0-----0-----1--|
G|--0--0--0-----0-----2--|
D|--2--2--2-----0-----2--|
A|--2--2--2-----2-----0--|
E|--0--0--0-----3-----0--|

[Rhy. fig. 4]
    Am
e|--0----0--0---------0--|
B|--1----1--1---------1--|
G|--2----2--2---------2--|
D|--2----2--2---------2--|
A|--0----0--0---------0--|
E|--0----0--0---------0--|

[Intro]
riff 1
rhy. fig. 1
riff 1
rhy. fig. 2
riff 2
rhy. fig. 3
riff 1
rhy. fig. 1

[Verse 1]
                      Em
Oh I think I smell a rat
                   rhy. fig. 4
I think I smell a rat
all you little kids
seem to think you know
                 strum Em
just where it's at
                   rhy. fig. 4
I think I smell a rat
walking down the street
                     strum Em
carrying a baseball bat
                   Am
I think I smell a rat

[Instrumental]
(intro)

[Verse 2]
(same as last verse)
Oh I think I smell a rat
I think I smell a rat
all you little kids
seem to think you know
just where is at
I think I smell a rat
treating your mother and father
like a welcome mat
I think I smell a rat

[Outro]
(intro)

you've almost got it right, riff 1 is almost right;
e--5-7-8-7-5-3-5------
B---------------------
G--------------------
D--------------------
A--------------------
E--------------------
and riff 2 is:
e-------------------
B-5-6-8-6-5-3-5-----
G-------------------
D-------------------
A-------------------
E-------------------

except for that it's correct! thank!!

https://tabs.ultimate-guitar.com/t/the_white_stripes/i_think_i_smell_a_rat_tab.htm