Tablature guitare : The White Stripes – Dead Leaves And The Dirty Ground

[INTRO]

e|----------------------------------------------------------------------|
B|----------------------------------------------------------------------|
G|------------------------------------------------------REPEAT 2X-------|
D|-------------------------------------------2--------------------------|
A|-------------------------------------------0--------------------------|
E|-5---5---5-0--3----3--3-0--2--2-0--1---1-0----------------------------|

e|----------------------------------------------------------------------|
B|----------------------------------------------------------------------|
G|-----2------0--0--0---------------------0--0--0----2------------------|
D|-----2------0--0--0----------------2-2--0--0--0----2------------------|
A|-----0------X--X--X----------------0-0--X--X--X----0------------------|
E|-3b-----0-0-3--3--3----2--2-0--1-0------3--3--3b-------3--3--3-0------|

e|----------------------------|
B|----------------------------|
G|-------------------0--------|
D|----------------2--0--------|
A|----------------0--X--------|
E|-2---2-0-1--1-0----3b-------|

e|---------------------------------------------------------------|
B|-2-----3p2-----------------------------------------2-----------|
G|-2-----------------------0---------0-------0-----2-----0-------|
D|-2--2------------------0---------2-------4-----2---------------|
A|-0----------0------0h2---------3-----3/5-----0-------0---------|
E|----------------0h3--------------------------------------------|

e|---------------------------------------------------------------|
B|-----3p2---------------0-------------------------2-------------|
G|---2-------2---------0--------0--------0-0-----2---0-0---------|
D|-2-------2---------0--------2---2----0-------2-----0-----------|
A|----------------0h2------3-------/5-------0--------------------|
E|-------------0h3-----------------------------------------------|


[VERSE]

A                  G                    C          D5       A5
DEAD LEAVES AND THE DIRTY GROUND WHEN I KNOW YOUR NOT AROUND

A5             G                 C              D5        A5
SHINY TOPS AND SODA POPS WHEN I  HEAR YOUR LIPS MAKE A SOUND

       F5        G5            A
WHEN I HEAR YOUR LIPS MAKE A SOUND

                 G                  C              D5/A      A5
THIRTY NOTES IN THE MAILBOX   WILL  TELL YOU THAT IM COMIN HOME


A                  G                        C          D           A
  AND I THINK IM GONNA STICK AROUND  FOR A  WHILE SO YOUR NOT ALONE


       F5         G5          A
FOR A  WHILE SO YOUR NOT ALONE

(NEXT PART HAS HEAVY DISTORTION AND FEEDBACK)

e|---------------------------0-------------------|----------------------|
B|-2-----2-------------------0-------------------|-2-----2--------------|
G|-2-X-X-2-X-X--4-------4-------5---7-----2---0--|-2-X-X-2-X-X-4-----4--|
D|-2-X-X-2-X-X--5--X-X--5-------5---7--%--2---0--|-2-X-X-2-X-X-5-X-X-5--|
A|-0-X-X-0-X-X--5--X-X--5--5----3---5-----0---X--|-0-X-X-0-X-X-5-X-X-5--|
E|--------------3--X-X--3--3--------5---------3--|-------------3-X-X-3--|


[2ND VERSE]

e|-----------------------------------------------------------------------|
B|-----------------------------------------------------------------------|
G|-----------------------------------------------------------------------|
D|-----------------------------------------------------------------------|
A|----------------------------------------------------------------0------|
E|----------------------3----------------------2---------1-------------3-|

IF YOU CAN HEAR A PIANO    FALL    YOU CAN HEAR ME COMIN DOWN THE HALL

A                           G                    C
  IF I COULD JUST HEAR YOUR PRETTY VOICE  I DONT THINK I NEED TO
D5/A       A5
SEE AT  ALL
     D5              G         A5
DONT THINK I NEED TO SEE AT ALL
                G5                       C                 D5/A      A
SOFT HAIR AND A VELVET TONGUE I WANT TO  GIVE YOU WHAT YOU GIVE TO ME
A5                         G                  C5/G        D5/A      A
  AND EVERY BREATH THAT IS IN YOUR LUNGS IS A TINY LITTLE GIFT TO ME
     F5          G5        A
IS A TINY LITTLE GIFT TO ME


e|-----------------------------------------------------------------|
B|-2----2-----------------------2--------2--------------2----------|
G|-2----2-----4-----4----5--7---2--0-2---2--------5--7--2----------|
D|-2----2-----5-X-X-5--5-5--5-%-2--0-2---2--5--5--5--7--2----------|
A|-0----0-----5-X-X-5--5-3--5---0--X-0-X-0--5--5--3--5--0----------|
E|----0---X-0-3-X-X-3--3-----------3--------3--3--3--5-------------|


[BRIDGE]

e|---------------------------------------------------------------------|
B|-------------7-------------------------------------------------------|
G|-7-----7-----7--7---7---7---7---7------------------------------------|
D|-7-X-X-7-X-X-7-X7---7-X-7-X-7-X-7--7-----7------7-------7---------5--|
A|-5-----5-----5--5---5---5---5---5--7-----7------7-------7---------5--|
E|-----------------------------------5-----5------5-------5---------3--|
I DIDNT FEEL SO BAD TILL THE SUN WENT DOWN

e|--------------------------------------------------------------------|
B|-------------7----7----7----7----7----7----7------------------------|
G|-------------7----7----7----7----7----7----7------------------------|
D|-7--7--7--7--7----7----7----7----7----7----7------------------------|
A|-7--7--5--7--5----5----5----5----5----5----5------------------------|
E|-5--5--5--5---------------------------------------------------------|
          THEN I COME HOME NO ONE TO MY ARMS AROUND

e|------------------------------------------------|
B|------------------------------------------------|
G|------------------------------------------------|
D|-3---3---3---3--------5---5---5-----------------|
A|-3---3---3---3--------5---5---5-----------------|
E|-1---1---1---1---1/3--3---3---3--0--------------|
               WRAP MY ARMS AROUND

e|----------------------------------------------------------------|
B|----------------------------------------------------------------|
G|-2--------------------------------------------------------------|
D|-2--------------------------------------------------------------|
A|-0-------------------------------------------------0------------|
E|--------------------3-------------2--------1-----------------3--|
  WELL ANY MAN WITH A MICROPHONE TELL YOU WHAT HE LOVES THE MOST

A5                     G                        C               D5/A
 AND  YOU KNOW WHY YOU LOVE AT  ALL  IF YOU'RE  THINKING OF THE HOLY
      A
 GHOST
        F5             G5         A
IF YOUR THINKING OF THE HOLY GHOST


[OUTRO]

e|--------------------------0---------0-----3--------------3-----------|
B|-------X--3p2--2-2--------0------0--0---1-0--0h3------------0--1-3-2-|
G|-2---2----2----2-2-----------0---0------0----0h2--2----0----0--0-2-2-|
D|-2-------------2-2------0----0---0------2----0----2----0----0--2-0-2-|
A|-0---------------------------2----------3---------0------------3---0-|
E|--------------------0h3------3-----------------------3---------------|

CHORDS USED IN SONG:

A5:   XO22XX             D5/A: XOO23X
G5:   3XOO33             D:    XXO232
F#5:  24XXXX             Glll: 3554XX
F5:   13XXXXX            C5:   X355XX
G:    3XOOO3             D5v/A:5577XX(5th fret)
A:    X0222X             D5v:  X577XX(5th fret)
C:    X32O1X             Dv:   X1444X
Dadd4:X54OXX             A5v:  567XXX
D5:   XXO23X             G5lll:355XXX

https://tabs.ultimate-guitar.com/t/the_white_stripes/dead_leaves_and_the_dirty_ground_ver3_tab.htm