Tablature guitare : The Strokes – Someday

"Someday"
The Strokes

Tabbed by Stoneman
3/4/09 

A good song with great rhythm.
The Strokes always seem to have alot happening with Their guitars
doing seperate things in different rhythm.
which makes everything seem complicated.
but is very very easy.
so I've decided to tab them both

Note: All the 2nd guitar parts are 16th notes,
so strum down and up strokes fairly fast


Standard tuning


[Intro]

(Lead)

e|-5-7-9-7-9-7-7-5--------------------------------|
B|-5-5-7-7-7-7-5-5--------------------------------|
G|-6-6-7-7-7-7-6-6--------------------------------|
D|------------------------------------------------|
A|------------------------------------------------|
E|------------------------------------------------|
      
(Ryhthm)

e|-5-5-5-5-5-5-5-5--2-2-2-2-2-2-2-2--5-5-5-5-5-5-5-5--5-5-5-5-5-5-5-5--------------|
B|-5-5-5-5-5-5-5-5--3-3-3-3-3-3-3-3--7-7-7-7-7-7-7-7--5-5-5-5-5-5-5-5--------------|
G|-6-6-6-6-6-6-6-6--4-4-4-4-4-4-4-4--7-7-7-7-7-7-7-7--6-6-6-6-6-6-6-6--------------|
D|-7-7-7-7-7-7-7-7--4-4-4-4-4-4-4-4--7-7-7-7-7-7-7-7--7-7-7-7-7-7-7-7--------------|
A|-7-7-7-7-7-7-7-7--2-2-2-2-2-2-2-2--5-5-5-5-5-5-5-5--7-7-7-7-7-7-7-7--------------|
E|-5-5-5-5-5-5-5-5------------------------------------5-5-5-5-5-5-5-5--------------|


[Verse]   

(Lead)

e|-5-7-9-7-9-7-7-5--------------------------------|
B|-5-5-7-7-7-7-5-5--------------------------------|
G|-6-6-7-7-7-7-6-6--------------------------------|
D|------------------------------------------------|
A|------------------------------------------------|
E|------------------------------------------------|


(Ryhthm) 

e|-5-5-5-5-5-5-5-5--2-2-2-2-2-2-2-2--5-5-5-5-5-5-5-5--5-5-5-5-5-5-5-5--------------|
B|-5-5-5-5-5-5-5-5--3-3-3-3-3-3-3-3--7-7-7-7-7-7-7-7--5-5-5-5-5-5-5-5--------------|
G|-6-6-6-6-6-6-6-6--4-4-4-4-4-4-4-4--7-7-7-7-7-7-7-7--6-6-6-6-6-6-6-6--------------|
D|-7-7-7-7-7-7-7-7--4-4-4-4-4-4-4-4--7-7-7-7-7-7-7-7--7-7-7-7-7-7-7-7--------------|
A|-7-7-7-7-7-7-7-7--2-2-2-2-2-2-2-2--5-5-5-5-5-5-5-5--7-7-7-7-7-7-7-7--------------|
E|-5-5-5-5-5-5-5-5------------------------------------5-5-5-5-5-5-5-5--------------|


[Chorus]

(Lead)

e|-9--12-9----7-10-7---5-9-5~------------5~-----5~-------|
B|-10----10---9----9---7---7~------------7~-----5~-------|
G|-9-----9----9----9---6---6~------------7~-----6~-------| 
D|-------------------------------------------------------| 
A|-------------------------------------------------------|
E|-------------------------------------------------------|

(Rhythm)

e|--5-5-5-5--7-7-7-7--9--9--9--9--9--9--9--9---5-5-5-5--5-5-5-5------|
B|--5-5-5-5--9-9-9-9--10-10-10-10-10-10-10-10--7-7-7-7--5-5-5-5------|
G|--6-6-6-6--9-9-9-9--11-11-11-11-11-11-11-11--7-7-7-7--6-6-6-6------| 
D|--7-7-7-7--9-9-9-9--11-11-11-11-11-11-11-11--7-7-7-7--7-7-7-7------| 
A|--7-7-7-7--7-7-7-7--9--9--9--9--9--9--9--9---5-5-5-5--7-7-7-7------|
E|--5-5-5-5---------------------------------------------5-5-5-5------|


[Bass Break]


[Verse]   

(Lead)

e|-5-7-9-7-9-7-7-5--------------------------------|
B|-5-5-7-7-7-7-5-5--------------------------------|
G|-6-6-7-7-7-7-6-6--------------------------------|
D|------------------------------------------------|
A|------------------------------------------------|
E|------------------------------------------------|


(Ryhthm) 

e|-5-5-5-5-5-5-5-5--2-2-2-2-2-2-2-2--5-5-5-5-5-5-5-5--5-5-5-5-5-5-5-5--------------|
B|-5-5-5-5-5-5-5-5--3-3-3-3-3-3-3-3--7-7-7-7-7-7-7-7--5-5-5-5-5-5-5-5--------------|
G|-6-6-6-6-6-6-6-6--4-4-4-4-4-4-4-4--7-7-7-7-7-7-7-7--6-6-6-6-6-6-6-6--------------|
D|-7-7-7-7-7-7-7-7--4-4-4-4-4-4-4-4--7-7-7-7-7-7-7-7--7-7-7-7-7-7-7-7--------------|
A|-7-7-7-7-7-7-7-7--2-2-2-2-2-2-2-2--5-5-5-5-5-5-5-5--7-7-7-7-7-7-7-7--------------|
E|-5-5-5-5-5-5-5-5------------------------------------5-5-5-5-5-5-5-5--------------|


[Chorus]

(Lead)

e|-9--12-9----7-10-7---5-9-5~------------5~-----5~-------|
B|-10----10---9----9---7---7~------------7~-----5~-------|
G|-9-----9----9----9---6---6~------------7~-----6~-------| 
D|-------------------------------------------------------| 
A|-------------------------------------------------------|
E|-------------------------------------------------------|

(Rhythm)

e|--5-5-5-5--7-7-7-7--9--9--9--9--9--9--9--9---5-5-5-5--5-5-5-5------|
B|--5-5-5-5--9-9-9-9--10-10-10-10-10-10-10-10--7-7-7-7--5-5-5-5------|
G|--6-6-6-6--9-9-9-9--11-11-11-11-11-11-11-11--7-7-7-7--6-6-6-6------| 
D|--7-7-7-7--9-9-9-9--11-11-11-11-11-11-11-11--7-7-7-7--7-7-7-7------| 
A|--7-7-7-7--7-7-7-7--9--9--9--9--9--9--9--9---5-5-5-5--7-7-7-7------|
E|--5-5-5-5---------------------------------------------5-5-5-5------|


[Outro]

(Lead)
 
e|------------------------------------5------------------|
B|-9-9-9-9-9-9-9-9-9-9-9-9-9-9-9------5------------------|
G|-9-9-9-9-9-9-9-9-9-9-9-9-9-9-9------6------------------|
D|-9-9-9-9-9-9-9-9-9-9-9-9-9-9-9------7------------------|
A|-7-7-7-7-7-7-7-7-7-7-7-7-7-7-7------7------------------|
E|------------------------------------5------------------|

(Rhythm)

e|-7-7-7-7-7-7-7-7-7-7-7-7-7-7-7------5------------------|
B|-9-9-9-9-9-9-9-9-9-9-9-9-9-9-9------5------------------|
G|-9-9-9-9-9-9-9-9-9-9-9-9-9-9-9------6------------------|
D|-9-9-9-9-9-9-9-9-9-9-9-9-9-9-9------7------------------|
A|-7-7-7-7-7-7-7-7-7-7-7-7-7-7-7------7------------------|
E|------------------------------------5------------------|



************************************

| ~  Vibrato

************************************

Source 1 : https://tabs.ultimate-guitar.com/t/the_strokes/someday_ver4_tab.htm

-------------------------------------------------------------------------------
                             Someday - Strokes
-------------------------------------------------------------------------------

Tabbed by Barney (Furry Monkey)


Tuning: standarad

[Intro]

e|-5-7-9-7-9-7-7-5--------------------------------|
B|-5-5-7-7-7-7-5-5--------------------------------|
G|-6-6-7-7-7-7-6-6--------------------------------|
D|------------------------------------------------|
A|------------------------------------------------|
E|------------------------------------------------|


[Verses]

e|-5-7-9-7-9-7-7-5--------------------------------|
B|-5-5-7-7-7-7-5-5--------------------------------|
G|-6-6-7-7-7-7-6-6--------------------------------|
D|------------------------------------------------|
A|------------------------------------------------|
E|------------------------------------------------|


[Chorus]

e|-9--12--9--7-10-7-5-9-5-------------------------|
B|-10-----10-9----9-7---7-------------------------|
G|-9------9--9----9-6---6-------------------------| 
D|------------------------------------------------| 
A|------------------------------------------------|
E|------------------------------------------------|

e|-9--12--9--7-10-7-5-9-5-------------------------|
B|-10-----10-9----9-7---7-------------------------|
G|-9------9--9----9-6---6-------------------------| 
D|------------------------------------------------| 
A|------------------------------------------------|
E|------------------------------------------------|

e|-9--12--9--7-10-7-5-9-5-------------------------|
B|-10-----10-9----9-7---7-------------------------|
G|-9------9--9----9-6---6-------------------------| 
D|------------------------------------------------| 
A|------------------------------------------------|
E|------------------------------------------------|

e|-9--12--9--7-10-7-5-9-5-------------------------|
B|-10-----10-9----9-7---7-9-----------------------|
G|-9------9--9----9-6---6-9-----------------------| 
D|------------------------9-X-32------------------| 
A|------------------------7-----------------------|
E|------------------------------------------------|


[Bridge]

e|------------------------------------------------|
B|------------------------------------------------|
G|------------------------------------------------|
D|------------------------------------------------|
A|-----------0-0-2-2-5-5-0-0----------------------|
E|------------------------------------------------|

e|-5-7-9-7-9-7-7-5--------------------------------|
B|-5-5-7-7-7-7-5-5--------------------------------|
G|-6-6-7-7-7-7-6-6--------------------------------|
D|------------------------------------------------| 
A|------------------------------------------------|
E|------------------------------------------------|

Order Of Song

 Intro X 2
 Verse X 4
 Chorus
 Bridge
 Verse X 2
 Chorus


[End On]
 
e|--5----------------------------------------------|
B|--5----------------------------------------------|
G|--6----------------------------------------------|
D|--7----------------------------------------------|
A|--7----------------------------------------------|
E|--5----------------------------------------------|

Source 2 : https://tabs.ultimate-guitar.com/t/the_strokes/someday_tab.htm