Tablature guitare : The Strokes – One Way Trigger

The Strokes-One way trigger
I did this tab by ear, so if you have any remarks, let me know!
Update 8/11/2015: There was a small note that I didn't notice untill 'Lolcohol' commented a correction in the
comments, thanks for the help!
Tabbed by: Tim Van de Voorde

[Main Riff]

 Em
E|-------7---------------7-------|
B|---8-------8-------8-------8---|
G|-9---9---9---9---9---9---9---9-|
D|-------------------------------|
A|-------------------------------|
E|-------------------------------|

 A 
E|-------5---------------5-------|
B|---5-------5-------5-------5---|
G|-6---6---6---6---6---6---6---6-|
D|-------------------------------|
A|-------------------------------|
E|-------------------------------|

 D
E|-------5---------------5-------|
B|---7-------7-------7-------7---|
G|-7---7---7---7---6---6---6---6-|
D|-------------------------------|
A|-------------------------------|
E|-------------------------------|

 G
E|-------3---------------3-------|
B|---3-------3-------3-------3---|
G|-4---4---4---4---4---4---4---4-|
D|-------------------------------|
A|-------------------------------|
E|-------------------------------|

“When you ask me”
E|---------------------------------------------------|
B|---------------------------------------------------|
G|-9-9-9-9-9-9--6-6-6-6-6-6/7-7-7-7-7-7--4-4-4-4-4-4-|
D|---------------------------------------------------|
A|-7-7-7-7-7-7--4-4-4-4-4-4/5-5-5-5-5-5--2-2-2-2-2-2-|
E|---------------------------------------------------|

[Solo]

E|------------------------------------5---------|
B|-7-8-7-8-7-7-8-7-7-7-7--7-8-7-8-7-7---7-7-7-7-|
G|----------------------------------------------|
D|----------------------------------------------|
A|----------------------------------------------|
E|----------------------------------------------|

E|----------------------------------------------|
B|-5-7-5-7-5-5-7-5-5-5-5--3-5-3-5-3--5-7-8------|
G|----------------------------------------------|
D|----------------------------------------------|
A|----------------------------------------------|
E|----------------------------------------------|

E|--------------------------------------------------------------------|
B|-14-15-14-15-14-14-15-14-14-14-14--15-17-15-17-15-15-17-15-15-15-15-|
G|--------------------------------------------------------------------|
D|--------------------------------------------------------------------|
A|--------------------------------------------------------------------|
E|--------------------------------------------------------------------|

E|-----------------------------------14-15-14-15-14--12----14----15-----|
B|-17-19-17-19-17-17-19-17-17-17-17------------------15b17-17b19-18b20--|
G|----------------------------------------------------------------------|
D|----------------------------------------------------------------------|
A|----------------------------------------------------------------------|
E|----------------------------------------------------------------------|

[Ending Riff]

E|----19----19----19----19----19----19----19----|
B|----------------------------------------------|
G|-16----16----16----16----16----16----16----16-|
D|----------------------------------------------|
A|----------------------------------------------|
E|----------------------------------------------|



************************************

| /  Slide up
| b  Bend

************************************

Commentaire :

Aaaaalmost correct. I was just about to post my version this tab, but yours is pretty spot on. The slight change I’m talking about is very subtle and happens on the D chord of the main riff, but it’s definitely there

-D-
E|-------5---------------5-------|
B|---7-------7-------7-------7---|
G|-7---7---7---7---6---6---6---6-|
D|-------------------------------|
A|-------------------------------|
E|-------------------------------|

It changes to a minor just before it goes to the G chord. If you change this, your tab will be perfect.

https://tabs.ultimate-guitar.com/t/the_strokes/one_way_trigger_ver2_tab.htm