Tablature guitare : The Strokes – Heart In A Cage

Band:  The Strokes
Album: First Impressions of Earth
Song:  Heart In A Cage
Copyright (c)  (RCA Records) (2005)
Transcribed By: Cameron Hustis
Email:          Wavejet@aol.com


Guitar 1 - Nick Valensi
Guitar 2 - Albert Hammond


[Intro]

Guitar 1
|------|
|-5\---|
|-5\---|
|------|
|------|
|------|


[Intro]

 Guitar 1
||---16--16--15--15--15--15-|---16--16--15--15--15--15-|---16--16--15--15--15--15-|---13--13--11--11--11--11|
||-18--18--18--16--16--16---|-18--18--18--16--16--16---|-18--18--18--16--16--16---|-15--15--15--13--13--13--|
||--------------------------|--------------------------|--------------------------|-------------------------|
||--------------------------|--------------------------|--------------------------|-------------------------|
||--------------------------|--------------------------|--------------------------|-------------------------|
||--------------------------|--------------------------|--------------------------|-------------------------|
||
||Guitar 2
||--------------------------|--------------------------|--------------------------|-------------------------|
||--------------------------|--------------------------|--------------------------|-------------------------|
||--------------------------|--------------------------|--------------------------|-------------------------|
||----------5----5-----5----|----5-----5----5----------|-----------5----5-----5---|----5-----5----5---------|
||-3--3--6--3----3--6--3----|----3--6--3----3--6-------|--3--3--6--3----3--6--3---|----3--6--3----3--6------|
||--------------------------|--------------------------|--------------------------|-------------------------|


[Intro]

||---16--16--15--15--15--15-|---16--16--15--15--15--15-|---16--16--15--15--15--15-|---13--13--11--11--11--11||
||-18--18--18--16--16--16---|-18--18--18--16--16--16---|-18--18--18--16--16--16---|-15--15--15--13--13--13--||
||--------------------------|--------------------------|--------------------------|-------------------------||
||--------------------------|--------------------------|--------------------------|-------------------------||
||--------------------------|--------------------------|--------------------------|-------------------------||
||--------------------------|--------------------------|--------------------------|-------------------------||
||
||
||--------------------------|--------------------------|--------------------------|-------------------------||
||--------------------------|--------------------------|--------------------------|-------------------------||
||----------5----5-----5----|----5-----5----5----------|--------------------------|-------------------------||
||-3--3--6--3----3--6--3----|----3--6--3----3--6-------|----------5----5-----5----|----5-----5----5---------||
||--------------------------|--------------------------|-3--3--6--3----3--6--3----|----3--6--3----3--6------||
||--------------------------|--------------------------|--------------------------|-------------------------||


Guitar 1
(Hold for 4 measures)
||--------------------------||
||-13-----------------------||
||-12-----------------------||
||--------------------------||
||--------------------------||
||--------------------------||
(Guitar 2 - Same as Intro A)



[Verse]

||-3--3-3--3-3--3-3--3|-3--3-3--3-3--3-3--3|-4--4-4--4-4--4-4--4|--------------------||
||-4--4-4--4-4--4-4--4|-4--4-4--4-4--4-4--4|-4--4-4--4-4--4-4--4|-8--8-8--8-8--8-8--8||
||-5--5-5--5-5--5-5--5|-5--5-5--5-5--5-5--5|-5--5-5--5-5--5-5--5|-8--8-8--8-8--8-8--8||
||-5--5-5--5-5--5-5--5|-5--5-5--5-5--5-5--5|-6--6-6--6-6--6-6--6|-8--8-8--8-8--8-8--8||
||--------------------|--------------------|--------------------|--------------------||
||--------------------|--------------------|--------------------|--------------------||
||
||
||--------------------|--------------------|--------------------|---------------------||
||--------------------|--------------------|--------------------|---------------------||
||--------------------|--------------------|--------------------|---------------------||
||--------------------|--------------------|--------------------|---------------------||
||-3--3-3--3-3--3-3--3|-3--3-3--3-3--3-3--3|--------------------|-6--6-6--6-6--6-6--6-||
||--------------------|--------------------|-4--4-4--4-4--4-4--4|---------------------||


[Interlude]
(played right after the riff from the intro)
||18-16-15-16-15----15-----|--------------------------|--------------------------|---------------------------|
||----------------18--18-16|-18-16-15-16-15-13-15-13--|-13-----------------------|---------------------------|
||-------------------------|------------------------15|---15-13-15-13-12-13-12---|-12------------------------|
||-------------------------|--------------------------|-----------------------15-|---15-13-15-13-12-13-12----|
||-------------------------|--------------------------|--------------------------|------------------------13-|
||-------------------------|--------------------------|--------------------------|---------------------------|
||
||
||--------------------------|--------------------------|--------------------------|--------------------------|
||--------------------------|--------------------------|--------------------------|--------------------------|
||--------------------------|--------------------------|--------------------------|--------------------------|
||----------5----5-----5----|----5-----5----5----------|-----------5----5-----5---|----5-----5----5----------|
||-3--3--6--3----3--6--3----|----3--6--3----3--6-------|--3--3--6--3----3--6--3---|----3--6--3----3--6-------|
||--------------------------|--------------------------|--------------------------|--------------------------|



|--------------------------------||
|-----12-12-12-12-12-12-12-12-12-||
|-----11-11-11-11-11-11-11-11-11-||
|--------------------------------||
|-15/----------------------------||
|--------------------------------||
|
|
|--------------------------------||
|--------------------------------||
|--------------------------------||
|--------------------------------||
|-15/-3--3--3--3--3--3--3--3--3--||
|--------------------------------||



[Bridge]


||--3--------3-------|--5--------5-------|--6--------6-------|-5--------5--------|
||-----4--------4----|-----4--------4----|-----8--------8----|----8--------8-----|
||--------5--------5-|--------5--------5-|--------7--------7-|-------7--------7--|
||-------------------|-------------------|-------------------|-------------------|
||-------------------|-------------------|-------------------|-------------------|
||-------------------|-------------------|-------------------|-------------------|
||
||
||-------------------|-------------------|-------------------|-------------------|
||-------------------|-------------------|-------------------|-------------------|
||-------------------|-------------------|-------------------|-------------------|
||-------------------|-------------------|-------------------|-------------------|
||-8--8--888---8--8--|-5--5--555---5--5--|-6--6--666---6--6--|-5--5--555---5--5--|
||-------------------|-------------------|-------------------|-------------------|



|--3--------3-------|--5--------5-------|--6--------6-------|-5--------5--------|
|-----4--------4----|-----4--------4----|-----8--------8----|----8--------8-----|
|--------5--------5-|--------5--------5-|--------7--------7-|-------7--------7--|
|-------------------|-------------------|-------------------|-------------------|
|-------------------|-------------------|-------------------|-------------------|
|-------------------|-------------------|-------------------|-------------------|
|
|
|-------------------|-------------------|-------------------|-------------------|
|-------------------|-------------------|-------------------|-------------------|
|-------------------|-------------------|-------------------|-------------------|
|-------------------|-------------------|-------------------|-------------------|
|-8--8--888---8--8--|-5--5--555---5--5--|-6--6--666---6--6--|-10-10-101010-10-10|
|-------------------|-------------------|-------------------|-------------------|



|--3--------3-------|--5--------5-------|--6--------6-------|-5--------10-------|
|-----4--------4----|-----4--------4----|-----8--------8----|----8--------8-----|
|--------5--------5-|--------5--------5-|--------7--------7-|-------7--------7--|
|-------------------|-------------------|-------------------|-------------------|
|-------------------|-------------------|-------------------|-------------------|
|-------------------|-------------------|-------------------|-------------------|
|
|
|-------------------|-------------------|-------------------|-------------------|
|-------------------|-------------------|-------------------|-------------------|
|-------------------|-------------------|-------------------|-------------------|
|-------------------|-------------------|-------------------|-------------------|
|-8--8--888---8--8--|-5--5--555---5--5--|-6--6--666---6--6--|-5--5--555---5--5--|
|-------------------|-------------------|-------------------|-------------------|



|--3--------3-------|--5--------5-------|--6--------6-------|-5------------5-5-5-5-5-5||
|-----4--------4----|-----4--------4----|-----8--------8----|----8---------8-8-8-8-8-8||
|--------5--------5-|--------5--------5-|--------7--------7-|-------7------7-7-7-7-7-7||
|-------------------|-------------------|-------------------|-------------------------||
|-------------------|-------------------|-------------------|-------------------------||
|-------------------|-------------------|-------------------|-------------------------||
|
|
|-------------------|-------------------|-------------------|-------------------------||
|-------------------|-------------------|-------------------|-------------------------||
|-------------------|-------------------|-------------------|-------------------------||
|-------------------|-------------------|-------------------|-------------------------||
|-8--8--888---8--8--|-5--5--555---5--5--|-6--6--666---6--6--|-101010101010101010101010||
|-------------------|-------------------|-------------------|-------------------------||



[Outro]


||18-16-15-16-15----15-----|--------------------------|--------------------------|---------------------------|
||----------------18--18-16|-18-16-15-16-15-13-15-13--|-13-----------------------|---------------------------|
||-------------------------|------------------------15|---15-13-15-13-12-13-12---|-12------------------------|
||-------------------------|--------------------------|-----------------------15-|---15-13-15-13-12-13-12----|
||-------------------------|--------------------------|--------------------------|------------------------15-|
||-------------------------|--------------------------|--------------------------|---------------------------|
||
||
||--------------------------|--------------------------|--------------------------|--------------------------|
||--------------------------|--------------------------|--------------------------|--------------------------|
||--------------------------|--------------------------|--------------------------|--------------------------|
||----------5----5-----5----|----5-----5----5----------|-----------5----5-----5---|----5-----5----5----------|
||-3--3--6--3----3--6--3----|----3--6--3----3--6-------|--3--3--6--3----3--6--3---|----3--6--3----3--6-------|
||--------------------------|--------------------------|--------------------------|--------------------------|


|---------------------------|------8-8-8-8-8-8-8-8-8-|
|---------------------------|------8-8-8-8-8-8-8-8-8-|
|---------------------------|------------------------|
|---------------------------|------------------------|
|12-------------------------|------------------------|
|--15-13-15-13--------------|-15/--------------------|
|-------------16-15-16-15-13|------------------------|
|
|
|---------------------------|------------------------|
|---------------------------|------------------------|
|---------------------------|------------------------|
|----5-----5----5-----------|------------------------|
|----3--6--3----3--6--------|-15/--3-3-3-3-3-3-3-3-3-|
|---------------------------|------------------------|



|-3----------|-4----------|------------||
|-4----------|-4----------|-8----------||
|-5----------|-5----------|-8----------||
|-5----------|-6----------|-8----------||
|------------|------------|------------||
|------------|------------|------------||
|
|
|------------|------------|------------||
|------------|------------|------------||
|------------|------------|------------||
|-5----------|------------|-8----------||
|-3----------|-6----------|-6----------||
|------------|-4----------|------------||



************************************

| /  Slide up
| \  Slide down

************************************

https://tabs.ultimate-guitar.com/t/the_strokes/heart_in_a_cage_tab.htm