Tablature guitare : The Strokes – Call Me Back

Alright. This is my first legit tab, so rate it. I feel pretty good about this, and I'm 
sure that if it's not right it's at least pretty damn close, but if there are any 
corrections at all, comment them and I'll change it. Thanks.


Tuning: Standard

[Intro/Verse]

e|---------------------------------------------------------------------------------------------|
b|---------------7---7---7--7-----7----7--7---7-5------7---7---7--5------7----7--7--7-5--------|
g|---------------7---7---7--9-----7----7--7---7-7------6---6---6--6------6----6--6--6-6--------|
d|---------------9---9---9--9-----6----6--6---6-6------7---7---7--7------4----4--4--4-4--------|
a|---------------------------------------------------------------------------------------------|
e|---------------------------------------------------------------------------------------------|


[Pre-Chorus]

For this part I went ahead and tabbed out the guitar and the chimes. If by some miracle 
your band has a chime player, the guitar is just 10 on the B string the whole way through.

x4
e|------------------------------------9----7-------|
b|-------10-------10--------10---------------------|
g|-------12--------7------------------9----7-------|
d|--------------------------11---------------------|
a|-------------------------------------------------|
e|-------------------------------------------------|


[Chorus]

e|--10--10--10---9--9---12--10--10--10--10---9--9--12--10--10--10--8--8--8--10--10--10--8----8---|
b|--11--11--11--10-10---10--11--11--11--11--10-10--10--10--10--10--8--8--8--10--10--10--8----8---|
g|-----------------------------------------------------------------------------------------------|
d|-----------------------------------------------------------------------------------------------|
a|-----------------------------------------------------------------------------------------------|
e|-----------------------------------------------------------------------------------------------|

https://tabs.ultimate-guitar.com/t/the_strokes/call_me_back_ver3_tab.htm