Tablature guitare : The Smashing Pumpkins – Today

alright. whats wrong people? ive looked at most of the tabs for this song, and not even
the intro is right. i dont know whats so hard about it, but im gunna tab it right for
you people. if you dont believe this tab, then watch Today live from SNL in '94 i
believe. then you will know whos the right tabber here.

Billy (guitar 1)
James (guitar 2)

Normal Tuning


[Intro] (Billy)

CLEAN
e|-11----13----11----15p11----|
B|----11----11----11-------11-|
G|----------------------------|
D|----------------------------| x4
A|----------------------------|
E|----------------------------|

DISTORTED
e|-11----13----11----15p11----|
B|----11----11----11-------11-|
G|----------------------------|
D|----------------------------| x8
A|----------------------------|
E|----------------------------|

end with

e|-11-------------------------|
B|-11-------------------------|
G|----------------------------|
D|----------------------------|
A|----------------------------|
E|----------------------------|

James (guitar 2) enter when the distortion comes in from Billy
e|--------------------|----------------------|--------------------|
B|--------------------|----------------------|--------------------|
G|-8------------------|-8--------------------|-8------------------|
D|-8----8----6--------|-8----8----10----6----|-8----8----6--------|
A|-6----8----6--------|-6----8----10----6----|-6----8----6--------|
E|------6----4--------|------6----8-----4----|------6----4--------|


[Verse] (Billy) clean
                   
e|-6----6----4--------|    |-6----6----8---------|
B|-6----6----4--------|    |-6----6----8---------|
G|-8----7----5--------|    |-8----7----9---------|
D|-8----8----6--------| x3 |-8----8----10--------|
A|-6----8----6--------|    |-6----8----10--------|
E|------6----4--------|    |------6----8---------|


[Chorus] (Billy)
                   
e|--------------------|
B|--------------------|
G|-----------5--------|
D|-3----6----5--------| x3
A|-3----6----3--------|
E|-1----4-------------|


[Chorus] (James)

e|--------------------|
B|--------------------|
G|-------------10b12~b|
D|-3----6---10--------|
A|-3----6---10--------|
E|-1----4----8--------|

e|--------------------|
B|--------------------|
G|--------------------|
D|-3----6---10--------|
A|-3----6---10--------|
E|-1----4----8--------|

e|--------------------|
B|--------------------|
G|-------------10b12~b|
D|-3----6---10--------|
A|-3----6---10--------|
E|-1----4----8--------|

both guitars end chorus with

e|---------------------|
B|---------------------|
G|----------------7----|
D|-3----6----5----7----|
A|-3----6----5----5----|
E|-1----4----3---------|


[Verse 2] (Billy) clean
                   
e|-6----6----4--------|    |-6----6----8---------|
B|-6----6----4--------|    |-6----6----8---------|
G|-8----7----5--------|    |-8----7----9---------|
D|-8----8----6--------| x3 |-8----8----10--------|
A|-6----8----6--------|    |-6----8----10--------|
E|------6----4--------|    |------6----8---------|

(James) mess around with this lead over the verse, not sure if its right.

e|------------------------------------|
B|--------------8-9----------11---9-8-|
G|-8---10---8-------8------8----8-----|
D|---8----8---8-------8---------------|
A|----------------------11------------|
E|------------------------------------|

e|--------------------------------------|
B|--------------------------------13----|
G|-8---10---8---------------10/12----12-|
D|---8----8---8-10-10-10-10-------------|
A|--------------------------------------|
E|--------------------------------------|


[Chorus] (Billy)
                   
e|--------------------|
B|--------------------|
G|-----------5--------|
D|-3----6----5--------| x3
A|-3----6----3--------|
E|-1----4-------------|


[Chorus] (James)

e|--------------------|
B|--------------------|
G|-------------10b12~-|
D|-3----6---10--------|
A|-3----6---10--------|
E|-1----4----8--------|

e|--------------------|
B|--------------------|
G|--------------------|
D|-3----6---10--------|
A|-3----6---10--------|
E|-1----4----8--------|

e|--------------------|
B|--------------------|
G|-------------10b12~-|
D|-3----6---10--------|
A|-3----6---10--------|
E|-1----4----8--------|

both guitars end chorus with

e|---------------------|
B|---------------------|
G|----------------7----|
D|-3----6----5----7----|
A|-3----6----5----5----|
E|-1----4----3---------|


[Interlude] (Billy)
                    
e|---------------------|    |----------------------|-----------------------------|
B|---------------------|    |----------------------|-----------------------------|
G|-8---------8---------|    |-8--------------------|-8---------------------------|
D|-8----8----8----6----| x2 |-8----8----10----6----|-8----8----10----------------|
A|-6----8----6----6----|    |-6----8----10----6----|-6----8----10----------------|
E|- ----6---------4----|    |------6----8-----4----|------6----8-----------------|

(James) On this solo, James first plays a small, lead then goes into the solo, he uses 
Vox Wah on this one.

The lead thats played in the interlude, pre-solo
                  
e|-------------------|
B|-8-8-8-8-8-8-8b9r8-|
G|-------------------|
D|-------------------| x7
A|-------------------|
E|-------------------|

e|-----------------------------------------------------|
B|-8~~~~-----------------------------------------------|
G|-------9b10r9-9h10-7h9-------------------------------|
D|-----------------------10~~--10h12p10\8h10b12r10~~~~-|
A|-----------------------------------------------------|
E|-----------------------------------------------------|


[Bridge] (Billy)
                   
e|--------------------|
B|--------------------|
G|-----------5--------|
D|-3----6----5--------| x3
A|-3----6----3--------|
E|-1----4-------------|

Bridge (James)

e|--------------------|
B|--------------------|
G|-------------10b12~-|
D|-3----6---10--------|
A|-3----6---10--------|
E|-1----4----8--------|

e|--------------------|
B|--------------------|
G|--------------------|
D|-3----6---10--------|
A|-3----6---10--------|
E|-1----4----8--------|

e|--------------------|
B|--------------------|
G|-------------10b12~-|
D|-3----6---10--------|
A|-3----6---10--------|
E|-1----4----8--------|

both guitars end chorus with

e|---------------------|
B|---------------------|
G|----------------7----|
D|-3----6----5----7----|
A|-3----6----5----5----|
E|-1----4----3---------|


[Outro] (Billy)
                     
e|----------------------|
B|----------------------|
G|-8--------------------|
D|-8----8----10----6----| x4
A|-6----8----10----6----|
E|------6----8-----4----|

Outro (James)
                           
e|-11----13----11----15p11----|
B|----11----11----11-------11-|
G|----------------------------|
D|----------------------------| x8
A|----------------------------|
E|----------------------------|

Billy ends on
e|------|
B|------|
G|-8----|
D|-8----|
A|-6----|
E|------|

James ends on
e|-11----|
B|-------|
G|-------|
D|-------|
A|-------|
E|-------|



************************************

| h  Hammer-on
| p  Pull-off
| r  Release
| b  Bend
| /  Slide up
| \  Slide down
| ~  Vibrato

************************************

https://tabs.ultimate-guitar.com/t/the_smashing_pumpkins/today_ver6_tab.htm