Tablature guitare : The Smashing Pumpkins – Stand Inside Your Love

Author
Difficulty
Tuning
novice
D# G# C# F# A# D#
This is one of my favorite Pumpkins song from their album Machina.
half-step down tuning

[Intro/Verse] 
(4x 1st guitar (clean))
D#|-------------------------------------------------------|                 
A#|-----3---------3-------3--------3----------------------|
F#|-------0---------0------------0------------------------| repeat 2x
C#|--4------4---------4-----------------------------------| go to next part
G#|-------------------------------------------------------|
D#|--------------------------0----------------------------|

D#|------------------------------------------0------------|
A#|-----3------3--------------------3--------0------------|
F#|-------2------2-----2------2-------2-------------------| 
C#|---------0------0--------2-----------0-----------------|
G#|--2--------------------0------2--------0---------------|
D#|-------------------------------------------------------|
  1st chorus Both Guitars (distorted)

      G    Gmaj7    D    A    G    Gmaj7    D    A 
D#|---3-----2-------2----0----3-----2-------2----0--------|
A#|---0-----3-------3----2----0-----3-------3----2--------|
F#|---0-----0-------2----2----0-----0-------2----2--------|
C#|---0-----0-------0----2----0-----0-------0----2--------|
G#|---2-----0------------0----2-----0------------0--------|
D#|---3-----3-----------------3-----3---------------------|
  
         Em7   D   A   Em7   D   A   Em7   D   A   Em7 
D#|----0----2---0----0----2---0----0----3---0----0--------|
A#|----3----3---2----3----3---2----3----2---2----3--------|
F#|----0----2---2----0----2---2----0----3---2----0--------|
C#|----2----0---2----2----0---2----2----0---2----2--------|
G#|----2--------0----2--------0----2--------0----2--------|
D#|----0-------------0-------------0-------------0--------|

     2nd Chorus Guitar 2 (distorted) after Billy's lines 
D#|-------------------------------------------------------|
A#|--20--19--15-------------------------------------------|
F#|-------------------------------------------------------|
C#|----------------16--15--11-----------------------------|
G#|-------------------------------------------------------|
D#|-------------------------------------------------------|
 riff 1 (play each octave 6 times)

D#|----------------| 
A#|----------------| 
F#|--12---11---7---| 
C#|--x----x----x---| 
G#|--10---9----5---|
D#|----------------|

D#|--------------|
A#|--------------|
F#|-15~--15--18~-|
C#|--------------| then riff 1 again
G#|--------------|
D#|--------------|

[Solo]
(distorted) I do not take credit for the solo it was froma friend of mine.
D#|-------------------------------------------------------|
A#|----------------------------21-------------------------|
F#|--/15~--15/18-18-18-20~-20~----20-18----20/22~---------|
C#|-------------------------------------20----------------|
G#|-------------------------------------------------------|
D#|-------------------------------------------------------|
 
D#|--------------------------------|
A#|--------------------------------|
F#|--22/20-----------18-18/20~/15~-|
C#|--------18/20~-18---------------|
G#|--------------------------------|
D#|--------------------------------|

[Chorus 3] 
(Guitar 2 distorted) after Billy's lines
D#|---------------|            
A#|--20~-19~-15~--|            
F#|---------------|           
C#|---------------|            
G#|---------------|            
D#|---------------|            

D#|---------------------| 
A#|--20~-19~-15~-16~~~--|
F#|---------------------|
C#|---------------------|
G#|---------------------|
D#|---------------------|

[the end]

https://tabs.ultimate-guitar.com/t/the_smashing_pumpkins/stand_inside_your_love_ver2_tab.htm