Tablature guitare : The Smashing Pumpkins – Soma

Standard tunning.

[Chords]
   B  F#7sus  G  Em  A  F#sus  E5  F#5  G5  D5  C5  D5/A  E
e|-7--0-------3--0---0--x------x---x----x---x---x---x-----x-|
B|-7--0-------3--0---2--x------x---x----x---x---x---x-----8-|
G|-8--4-------4--0---2--4------x---x----x---x--(7)-(7)----9-|
D|-9--4-------5--2---2--4------2---4----5--(7)--7---7-----9-|
A|-9--4-------5--2---0--4------2---4----5---7---5---5-----7-|
E|-7--2-------3--0---x--2------0---2----3---5---x---5-----x-|

[Power chords]
    A C  G f B E G
e|----------------|
B|----------------|
G|----------------|
D|-7-10-5-3-9-2-5-|
A|-7-10-5-3-9-2-5-|
E|-5-9--3-1-7-0-3-|

tempo=64 (slow rock)

[Intro] 
(Gtr.1)
e|-----------------------0-----------------------------------------------|
B|------0---0----------------------------12----12-12---------12-------0--|
G|------8---0--------9-----0-------------0-----0--0--0----12----12-------|
D|----9---9--------9---9--------------12----12---------------------12----|(x2)
A|--9---------7--------------------10------------------10----------------|
E|-----------------------------------------------------------------------|

(Gtr.2)
e|-------------------------0---------------------------------------------|
B|------0--------------0-------------------------------------------------|
G|------8---8------9---------(9)/-----------------4----------------------|
D|----9---9------9---9---9----------------5------------5-----------5-----|
A|--9---------7-----------------------5------5---------------5-----------|
E|---------------------------------3-------------------------------------|

e|---------------------7-------------------------------------------------|
B|------0----------------7-----------------------------------------------|
G|------8---8------9-------9----------------------4---------------0------|
D|----9---9------9---9--------------------5------------5--------5--------|
A|--9---------7-----------------------5------5----------------5-----5\10-|
E|---------------------------------3-------------------------------------|

(Gtr.1)
e|-----------------------0-----------------------------------------------|
B|------0---0-----------------------------3-------3-----------3-------0--|
G|------8---0--------9-----0--------------0-------0-----------0-------0--|
D|----9---9--------9---9--------------4------5--------4h5--5----4h5-5----|
A|--9---------7--------------------5-------------------------------------|
E|-----------------------------------------------------------------------|

(Gtr.2)
e|-------------------------0---------------------------------------------|
B|------0--------------0-------------------------------------------------|
G|------8---8------9---------(9)/---------------------4------------------|
D|----9---9------9---9---9----------------5----------------5--------5----|
A|--9---------7-----------------------5------5------------------5--------|
E|---------------------------------3-------------------------------------|

(Gtr.1)
e|-----------------------0-----------------------------------------------|
B|------0---0----------------------------12----12-12---------12-------0--|
G|------8---0--------9-----0-------------0-----0--0--0----12----12-------|
D|----9---9--------9---9--------------12----12---------------------12----|
A|--9---------7--------------------10------------------10----------------|
E|-----------------------------------------------------------------------|

(Gtr.2)
e|---------------------7-------------------------------------0-----------|
B|------0----------------7--------------------------------------0--------|
G|------8---8------9-------9-------------------4-------------------0-----|
D|----9---9------9---9-------------------5-----------5---------------(5)-|
A|--9---------7-----------------------5-----5-------------5--------------|
E|---------------------------------3-------------------------------------|

(Gtr.1)
e|-----------------------------------------------------------------------|
B|--------------------0---0---0---0-----------------------0---0---0----0-|
G|-8--------8\9--11/7---6---4---2-----8--------8\9--11--12--11-\14--/9---|
D|-----9h11-------------------------------9h11---------------------------|
A|-----------------------------------------------------------------------|(x2)
E|-----------------------------------------------------------------------|

(Gtr.2)
    B          E     G                 B          E     G
e|-7----------------3-----------------7----------------3-----------------|
B|-7----------8-----3-----------------7----------8-----3-----------------|
G|-8----------9-----4-----------------8----------9-----4-----------------|
D|-9----------9-----5-----------------9----------9-----5-----------------|(x2)
A|-9----------7-----5-----------------9----------7-----5-----------------|
E|-7----------------3-----------------7----------------3-----------------|

[Verse]
B        E       G 
nothing left to say
B            E       G 
and all i've left to do
B       E        G
is run away from you
               B  E  
and she let me on down
     G               B   E
with secrets i can't keep
G                   B    E
close your eyes and sleep
G                 B E
don't wait up for me
G                  B    E   G
hush now don't you speak to me
B          E       G
wrapped my hurt in you
B           E               G
and took my shelter in that pain
B      E      G 
the opiate of blame
               B     E          G 
is your broken heart heart your heart
       B       E    G
so now i'm all by myself
B       E      G
as i've always felt
    B      E       G
and i'll betray my tears
      B   E      G              F#
to anyone caught in our ruse of fools
B                        F# 
one last kiss for me yeah
B
one last kiss
     G 
good night

(Gtr.1)                          Bend many x's
e|-10---------10---------------------------------------------------------|
B|------10h12-----10-/14\10--7--b7(8)b7b7(8)-----------------------------|
G|--0-----------------------------------------(Still bending many x's)---|
D|--------------------------------------------b4(5)b4b4(5)-/12--11h12p11-|
A|-----------------------------------------------------------------------|
E|-----------------------------------------------------------------------|
  
e|----------------------------------------------------------------|
B|-----------------------0~~--------------0~~~~~~~----------------|
G|-------------------9-----9---9-----9----------------------------|
D|--/14--\9--7-----9---9-----9-----9---9--------------------------|
A|---------------7---------------7--------------------------------|
E|----------------------------------------------------------------|

And now the heavy distortion... played with power chords

A   C   G                F              A   C  G 
          didn't want to lose you once again
               F       A     C  G
didn't want to be your friend
            F               A  C  G
fulfilled a promise made of tin
                    F
and crawled back to you
                               (darcy and billy with backup) 
   B       E    G
 i'm all by myself  (close your eyes and sleep)
B       E      G
as i've always felt    (don't wait up for me)
    B      E      G
and i'll betray myself (hush now don't you speak)
      B   E
to anyone lost 
G
anyone but you
 Kickass solo here, while playing B-E-G- under solo
A  C  G            F              A  C  G
        so let the sadness come again
            F
on that you can
  E       G
depend on me
D         C             E  
until the bitter bitter end
       G       D
of the world
                   C
when god sleeps in bliss
    B       E    G
and i'm all by myself
B       E      G
as i've always felt
    B      E    G
and i'll betray myself
      B  E G
to anyone.  

(Clean guitar)
B       E       G
nah nah nah nah nah nah nah nah
B         E        G
yeah yeah yeah nah nah nah nah nah
B         E        G
yeah yeah yeah nah nah nah nah nah
B         E        G
yeah yeah yeah nah nah
B
hoh... 

e|----------------------|----------------------------------------------------------|
B|----------------------|----------------------------------------------------------|
G|-8--8--x9-x-11^(11)^^-|-(11)^^---(11)---------------14^-14^--(14)--14p13-13^^----|
D|----------------------|-----------------x---x----------------------------------x-|
A|----------------------|--------------x-------------------------------------------|
E|----------------------|---------(pick scrapes x)---------------------------------|

e|-------------------------------------------------------------------------------|
B|-----------------------------------------------------------x-15^-(15)-(15^^)-x-|
G|-12-----12--------------------------12-14^-14-12----12-14^---------------------|
D|-----14--------------------14-12-14--------------14----------------------------|
A|-----------14-12--14-12-14-----------------------------------------------------|
E|-------------------------------------------------------------------------------|

e|--------------------------------|----------------------------------------------|
B|-15(15^ hold bend)-x-15--15--12-|-15-12-15-12-14^^--(14)-12--------------------|
G|-------------------x-14-(14)----|---------------------------14-(12)14-12-------|
D|--------------------------------|----------------------------------------14-12-|
A|--------------------------------|----------------------------------------------|
E|--------------------------------|----------------------------------------------|

e|---------------------------14-|-14^----------------(14)12-12(15)-|
B|--------------------------x-0-|--0-------------------------------|
G|------------------------------|----------------------------------|
D|------------------------------|-----14-(14^)-14-14---------------|
A|-14-12-10-12--10-10-12/14-----|----------------------------------|
E|------------------------------|----------------------------------|

e|-12--(15)----15--------------------------------------------------|
B|----------12--------------------------------------------------17^]
G|----------------16-14-12-16-14-12----12-14-12--------------------|
D|----------------------------------14----------14-12--------------|
A|----------------------------------------------------14-10/14-----|
E|-----------------------------------------------------------------|

e|-------------------------|----------------------22^^-|-(22)--(22^^)(20^) GRAND BEND- (22)-|
B|-(17^)-17^--20^--20^--20-|-(20^)--^-------(20)/------|------------------------------------|
G|-------------------------|---------------------------|------------------------------------|
D|-------------------------|---------------------------|------------------------------------|
A|-------------------------|---------------------------|------------------------------------|
E|-------------------------|---------------------------|------------------------------------|

e|-22~~-----------------------------------------------|-------manipulate tone w/toggle switch-|
B|----------------------------------------------------|---------------------------------------|
G|----------15--15-16-14-12----12---------------------|-7^--(7^)--(7)-7-7-7-7-7-(7)-7-7-5-7-5-|
D|--------------------------14-------0-0--------------|---------------------------------------|
A|--------------------------------14-----12^--x---x---|---------------------------------------|
E|------15\-------------------------------------------|---------------------------------------|

e|------------------------------------------|-15-------------------------------|
B|------------------------------------------|---------------15-----------------|
G|---12^-(12^)-(12^)-(12^)-12^-12^----------|----16---17-----------------------|
D|-0---------------------------------12--12-|------------17-----17--14---------|
A|------------------------------------------|----------------------------------|
E|------------------------------------------|---------------------------17--15-|

e|------------------------------------------|--------------------------|
B|------------------------------------------|-----------------------12-|
G|---/9-------------------------------------|-9---9---9---7---9--------|
D|-x----12-10--12-10-9--10-----10\----------|--------------------------|
A|----------------------------------3-3-0-0-|-7---7---7---5---5--------|
E|------------------------------------------|--------------------------|

e|------------------------------------|------------------|
B|------------------------------------|------------------|
G|-7--7---7---7--5---4----------------|-4/4---2--2\2--2--|
D|----------------------5-5--5\7--7-7-|-------5-------4--|
A|-5--5---5---5--3---2----------------|------------------|
E|----------------------3-3--3\5--5-5-|------------------|

e|---------------------------------|----------------------|------------|
B|---------------------------------|----------------------|------------|
G|-7--7---7--7--7---9--\7--7--7--7-|----------------------|------------|
D|---------------------------------|----------------------|------------|
A|-5--5---5--5--5---7--\5--5--5--5-|-6\9--7--/12-12-12-12-|-10\9--7\5--|
E|---------------------------------|----------------------|------------|

e|--------|------------------|-----------------------------------------|
B|--------|------------------|-----------------------------------------|
G|--------|------------------|-----------------------------------------|
D|--------|------------------|-----------------------------------------|
A|--------|-10----10---10^-^-|-(10)------------------------------(10^)-|
E|--------|------------------|-----------------------------------------|


************************************

| x    Dead note
| (n)  Ghost note
| \    Slide down
| h    Hammer-on
| /    Slide up
| b    Bend
| p    Pull-off
| ~    Vibrato

************************************

https://tabs.ultimate-guitar.com/t/the_smashing_pumpkins/soma_ver2_tab.htm