Tablature guitare : The Kooks – Ooh La

=======================================
------The Kooks : Ooh La Acoustic------
=======================================

[Update]
Solo updated, Feb 22 08.
Yes the last solo was abit poor, this one is much more precise.

Note:
I thought the other versions of ooh la weren't clear enough
and didnt show the proper chords, so i thought id show my version.
some bits may be abit similar, some not.

Ive also included the solo which is on the first video.

Acoustic performance can be watched here at:
http://www.youtube.com/watch?v=K_Qw2GwRJa8
Or for the standard tuning version w/o solo, watch it here:

===========================================
Tuning: 1 step down or Standard

-------------------------------------------
[Chords]
G   - 3, 2, 0, 0, x, 3 or 3, 5, 5, 4, 3, 3
C   - 0, 3, 2, 0, 1, 0 or x, 3, 5, 5, 5, 3
Bm* - x, 2, 4, 4, 3, 0
Bm  - x, 2, 4, 4, 3, 2
Em  - 0, 2, 2, 0, x, 0
A   - x, 0, 2, 2, 2, 0
Em* - 0, 2, x, x, x, x
F#* - 2, 0, x, x, x, x
G*  - 3, 0, x, x, x, x
-------------------------------------------

[Intro] Bm*

[Verse]
Bm*
    In their eyes is the place that you finally discovered
         G
That you love it here, you’ve got to stay
       Em
On the bottom of the rock, an island
                      Bm
On which you find you love it when you twitch
                          G        G C G
You feel that itch in you pettycoat
                   Em
Your pretty pretty pettycoat
         Bm
Then you smiled, he got wild
                                   G
You didn’t understand that there’s money to be made
                      Em
Beauty is a card that must get played
         A
By organisation

[Chorus]
Bm         G                  A            Em Em* F#* G*
   And ooh la, she was such a good girl to me
G          Bm                 A                           Em Em* F#* G*
   And ooh la, the world just chewed her up, and spat her out
G          Bm                 A            Em Em* F#* G*
   And ooh la, she was such a good girl to me
G          Bm                 A                           Em
   And ooh la, the world just chewed her up, and spat her out

[Verse 2](start with Bm not Bm*)
The world can be a very big place
So be yourself don’t get out of place
Love your man and love him twice
Go to Hollywood and pay the price
Oh go to Hollywood

And don’t be a star, it’s such a drag
Take care of yourself, don’t begin to lag
It’s a hard life to live, so live it well
I’ll be your friend and not in pretend
I know you girl
In all situations

[Chorus]
Bm         G                  A            Em Em* F#* G*
   And ooh la, she was such a good girl to me
G          Bm                 A                           Em Em* F#* G*
   And ooh la, the world just chewed her up, and spat her out
G          Bm                 A            Em Em* F#* G*
   And ooh la, she was such a good girl to me
G          Bm                 A                           Em
   And ooh la, the world just chewed her up, and spat her out

[Solo]
If you watch the first video, you will understand what i mean
by the intro to this solo. Verse chords are played over this.

[Video 1 Solo update]
 (7.26)
e|---------------------------------------------0-0---0-0-----------------|
B|---------------------------------------------8/10--8/10--10\8----------|
G|--9-b-10~~~~~~10p9p7-9-7~--9-7-9-7-9-7-9-7-9-9/11--9/11--11\9--7-9-7-9-|
D|-----------------------------------------------------------------------|
A|-----------------------------------------------------------------------|
E|-----------------------------------------------------------------------|

e|--0-0----9-------10-------10------10-10-12-10----12-10----12-10----|
B|--8/10-10--10-------10-------10---------------10-------10-------10-|
G|--9/11-11-----11-------11-------11---------------------------------|
D|-------------------------------------------------------------------|
A|-------------------------------------------------------------------|
E|-------------------------------------------------------------------|

e|-13-10----------------------------------------------|
B|-------12-10----------------------------------------|
G|-------------12-11-9-7-9-7-------7-9-9b10~~~--------|
D|---------------------------9-7-9--------------------|
A|----------------------------------------------------|
E|----------------------------------------------------|

Pretty pretty pretty pretty pretty pretty pretty pretty pretty
Pretty pretty pretty pretty pretty pretty pretty pettycoat
Pretty pretty pretty pretty pretty pretty pretty pretty pretty
Pretty pretty pretty pretty pretty pretty pretty pettycoat
In all situations

[Chorus]
Bm         G                  A            Em Em* F#* G*
   And ooh la, she was such a good girl to me
G          Bm                 A                           Em Em* F#* G*
   And ooh la, the world just chewed her up, and spat her out
G          Bm                 A            Em Em* F#* G*
   And ooh la, she was such a good girl to me
G          Bm                 A                           Em
   And ooh la, the world just chewed her up, and spat her out

And finish.

Hope this helps, comments are welcome =]


************************************

| /  Slide up
| \  Slide down
| p  Pull-off
| b  Bend
| ~  Vibrato

************************************

https://tabs.ultimate-guitar.com/t/the_kooks/ooh_la_tab.htm