Tablature guitare : The Beatles – Hey Jude

-------------------------------------------------------------------------------
                        Hey Jude- The Beatles
-------------------------------------------------------------------------------
Tabbed by: Levi
Email: levischrumpf@yahoo.com

  Okay, someone else tried to tab the vocal part but it was only on one string… and in the
wrong key.  I don’t know if anyone cares about the vocal part, but this is pretty close to 
real thing.  Feel free to comment on it or send me corrections.  Im only 14, and this is
first tab, so don’t be too harsh.  GO BEATLES!

Tuning: EADGBe


e|---------------------------------------------------------------------------|
B|-----------------------------6--6-5-----------------------8-6-5-6----------|
G|--5----------5-7--------------------5-7-5--------5-7-7--7---------7-5------|
D|-----7-----7-----5----5-7-8---------------8-7------------------------------|
A|---------------------------------------------------------------------------|
E|---------------------------------------------------------------------------|
                                                                                 X2
e|---------------------------------------------------------------------------|
B|---------------------------------------------------------------------------|
G|--------7-5---5------------------------------------------------------------|
D|----5-7---------8-7--------------------------------------------------------|
A|--8------------------7-8---------------------------------------------------|
E|---------------------------------------------------------------------------|

e|---------------------------------------------------------------------------|
B|-----6--------------6----6-----6-------------------------------------------|
G|---5----8-7-5-5--7----7----------7-5---5--7-5------------------------------|
D|---------------8-----------8---------8--------8-7--------------------------| X2
A|--------------------------------------------------8------------------------|
E|---------------------------------------------------------------------------|

e|---------------------------------------------------------------------------|
B|-------------5-6-8-8-------------------------------------------------------|
G|----5-7-8-8----------------------------------------------------------------|
D|---------------------------------------------------------------------------|
A|--8------------------------------------------------------------------------|
E|---------------------------------------------------------------------------|

e|---------------------------------------------------------------------------|
B|-----------------------------6--6-5-----------------------8-6-5-6----------|
G|--5----------5-7--------------------5-7-5--------5-7-7--7---------7-5------|
D|-----7-----7-----5----5-7-8---------------8-7------------------------------|
A|---------------------------------------------------------------------------|
E|---------------------------------------------------------------------------|
                                                                                 X2
e|---------------------------------------------------------------------------|
B|---------------------------------------------------------------------------|
G|--------7-5---5------------------------------------------------------------|
D|----5-7---------8-7--------------------------------------------------------|
A|--8------------------7-8---------------------------------------------------|
E|---------------------------------------------------------------------------|


e|---------------------------------------------------------------------------|
B|-----6--------------6----6-----6-------------------------------------------|
G|---5----8-7-5-5--7----7----------7-5---5--7-5------------------------------|
D|---------------8-----------8---------8--------8-7--------------------------| 
A|--------------------------------------------------8------------------------|
E|---------------------------------------------------------------------------|


e|---------6-----------------------------------------------------------------|
B|-----6-8---6-8-8-6---6----8--------6---------------------------------------|
G|---5--------------7----7----7p5------7-5---5--7-5--------------------------|
D|-------------------------------5---------8--------8-7----------------------| 
A|------------------------------------------------------8--------------------|
E|---------------------------------------------------------------------------|


e|---------------------------------------------------------------------------|
B|-------------5-6-8-8-------------------------------------------------------|
G|----5-7-8-8----------------------------------------------------------------|
D|---------------------------------------------------------------------------|
A|--8------------------------------------------------------------------------|
E|---------------------------------------------------------------------------|


e|---------------------------------------------------------------------------|
B|----6----------------------------6--6-5-----------------------8-6-5-6------|
G|--7---7-(5)-------5-7--------------------5-7-5-------5-7-7--7--------7-5---|
D|-----------(7)--7-----5----5-7-8---------------8-7-------------------------|
A|---------------------------------------------------------------------------|
E|---------------------------------------------------------------------------|

e|-------------------------------------------5--7-8---13---------------------|
B|------------------------------------5-6--8---------------------------------|
G|--------7-5---5----------------4-5-----------------------------------------|
D|----5-7---------8-7-------5-7----------------------------------------------|
A|--8------------------7-8---------------------------------------------------|
E|---------------------------------------------------------------------------|

e|---------------------------------------------------------------------------|
B|---------8-6-8-6--8-6-8-6--------------------------------------------------|
G|-------5-------------------8p7-5-------------------------------------------|
D|-----7---------------------------------------------------------------------| X18
A|--8------------------------------------------------------------------------|
E|---------------------------------------------------------------------------|


*********************************

| /  slide up
| \  slide down
| h  hammer-on
| p  pull-off
| ~  vibrato
| +  harmonic
| x  Mute note

*********************************