Tablature guitare : The All-American Rejects – Too Far Gone

Intro:
e|----------------------------------------------|
B|------0------0------0------0------------------|
G|-------2------2------2------2-----------------|
D|----2------2------2------2--------------------|
A|--0-------------------------------------------|
E|----------------------------------------------|

e|----------------------------------------------|
B|------0------0------0------0------------------|
G|----2---2------2------2------2----------------|
D|--0--------0------0------0--------------------|
A|----------------------------------------------|
E|----------------------------------------------|

e|----------------------------------------------|
B|------0------0------0------0------------------|
G|----2---2------2------2------2----------------|
D|--4--------4------2------2--------------------|
A|----------------------------------------------|
E|----------------------------------------------|

e|----------------------------------------------|
B|------0------0------0------0------------------|
G|----2---2------2------2------2----------------|
D|--0--------0------0------0--------------------|
A|----------------------------------------------|
E|----------------------------------------------|


Verse   (p.m. on 2nd verse)
e|----------------------------------------------|
B|----------------------------------------------|
G|--2--7-----9--2-------------------------------|
D|--2--7--7--9--2-------------------------------|
A|--0--5--7--7--0-------------------------------|
E|--------5-------------------------------------|

Please speak slowly....
e|----------------------------------------------|
B|------0------0------0------0------------------|
G|-------2------2------2------2-----------------|
D|----2------2------2------2--------------------|
A|--0-------------------------------------------|
E|----------------------------------------------|

e|----------------------------------------------|
B|------0------0------0------0------------------|
G|----2---2------2------2------2----------------|
D|--0--------0------0------0--------------------|
A|----------------------------------------------|
E|----------------------------------------------|

Now we're too far gone...
e|----------------------------------------------|
B|----------------------------------------------|
G|-----7-----9----2--7-----9--------------------|
D|--4--7--7--9----2--7--7--9--------------------|
A|--4--5--7--7----0--5--7--7--------------------|
E|--2-----5-------------5-----------------------|

The second time they go into the 'please speak slowly' part,
they play these chords with the lead.
e|--0>---0>-------------------------------------|
B|--0>---0>-------------------------------------|
G|--2>---2>-------------------------------------|
D|--2>---0>-------------------------------------|
A|--0>------------------------------------------|
E|----------------------------------------------|
Suggest correction

https://tabs.ultimate-guitar.com/t/the_all-american_rejects/too_far_gone_ver2_tab.htm