Tablature guitare : The All-American Rejects – Stab My Back

Artist : All-American Rejects
Song   : Stab My Back
Album  : Move Along
Tuning : Standard                               

Intro - (x1)
   Cmaj7(no 3rd)                 G
e|-------------------------------------------------------------------| 
B|---------------------------------------------3-3-3-----------------|
G|-4-4-4-4---4---4-4-4-5-4---4---4-4-4-4---4---x-x-x---5-4----4------|
D|-x-x-x-x---x---x-x-x-x-x---x---x-x-x-x---x---x-x-x---x-x----x------|
A|-3-3-3-3---3---3-3-3-3-3---3---x-x-x-x---x---x-x-x---x-x----x------|
E|-------------------------------3-3-3-3---3---3-3-3---3-3----3------|

   Cmaj7(no 3rd)
e|------------------------------| 
B|------------------------------|
G|-4-4-4-4---4---4-4-4-5-4---4--|
D|-x-x-x-x---x---x-x-x-x-x---x--|
A|-3-3-3-3---3---3-3-3-3-3---3--|
E|------------------------------|

Verse - (x2)
   G                  D                 Cadd9             Em7
e|-3-3-3-3-3-3-3-3----2-2-2-2-2-2-2-2---0-0-0-0-0-0-0-0---3-3-3-3-3-3-3-3-| 
B|-3-3-3-3-3-3-3-3----3-3-3-3-3-3-3-3---3-3-3-3-3-3-3-3---3-3-3-3-3-3-3-3-|
G|-0-0-0-0-0-0-0-0----2-2-2-2-2-2-2-2---0-0-0-0-0-0-0-0---0-0-0-0-0-0-0-0-|
D|-0-0-0-0-0-0-0-0----0-0-0-0-0-0-0-0---2-2-2-2-2-2-2-2---2-2-2-2-2-2-2-2-|
A|-2-2-2-2-2-2-2-2----------------------3-3-3-3-3-3-3-3---2-2-2-2-2-2-2-2-|
E|-3-3-3-3-3-3-3-3----------------------------------------0-0-0-0-0-0-0-0-|

Pre-chorus - (x1)
  Am7               Bm11
e|----------------------------------| 
B|-------------1----------------0---|
G|---------0----------------2-------|
D|-----2----------------0-----------|
A|-0----------------2---------------|
E|----------------------------------|

Chorus - (x2)
   C5                A7(no 3rd)        Em      
e|-3-3-3-3-3-3-3-3---3-3-3-3-3-3-3-3---2-2-2-2-2---2---2-2-2-2-2---2------| 
B|-3-3-3-3-3-3-3-3---3-3-3-3-3-3-3-3---3-3-3-3-3---3---3-3-3-3-3---3------|
G|-0-0-0-0-0-0-0-0---0-0-0-0-0-0-0-0---0-0-0-0-0---0---0-0-0-0-0---0------|
D|-2-2-2-2-2-2-2-2---2-2-2-2-2-2-2-2---x-x-x-x-x---x---x-x-x-x-x---x------|
A|-3-3-3-3-3-3-3-3---0-0-0-0-0-0-0-0---2-2-2-2-2---2---2-2-2-2-2---2------|
E|-------------------------------------0-0-0-0-0---0---0-0-0-0-0---0------|

chorus continued - (x1)
   C5                A7(no 3rd)        Em                G
e|-3-3-3-3-3-3-3-3---3-3-3-3-3-3-3-3---3-3-3-3-3-3-3-3---3-3-3-3-3-3-3-3--| 
B|-3-3-3-3-3-3-3-3---3-3-3-3-3-3-3-3---3-3-3-3-3-3-3-3---3-3-3-3-3-3-3-3--|
G|-0-0-0-0-0-0-0-0---0-0-0-0-0-0-0-0---0-0-0-0-0-0-0-0---0-0-0-0-0-0-0-0--|
D|-2-2-2-2-2-2-2-2---2-2-2-2-2-2-2-2---2-2-2-2-2-2-2-2---0-0-0-0-0-0-0-0--|
A|-3-3-3-3-3-3-3-3---0-0-0-0-0-0-0-0---2-2-2-2-2-2-2-2---2-2-2-2-2-2-2-2--|
E|-------------------------------------0-0-0-0-0-0-0-0---3-3-3-3-3-3-3-3--|

   C5                A7(no 3rd)               Cmaj7(no 3rd)
e|-3-3-3-3-3-3-3-3---3-3-3-3-3-3-3-3--------------------------------------|(x1) 
B|-3-3-3-3-3-3-3-3---3-3-3-3-3-3-3-3--------------------------------------|
G|-0-0-0-0-0-0-0-0---0-0-0-0-0-0-0-0----------4-4-4-4---4---4-4-4-5-4---4-|
D|-2-2-2-2-2-2-2-2---2-2-2-2-2-2-2-2----------x-x-x-x---x---x-x-x-x-x---x-|
A|-3-3-3-3-3-3-3-3---0-0-0-0-0-0-0-0----------3-3-3-3---3---3-3-3-3-3---3-|
E|------------------------------------------------------------------------|

Verse - (x2) Gtr.1 picks, Gtr.2 plays power chords 
   G                D                Cadd9            Em7
e|---3-----3-----------2-----2-----0----0-----0---------3-----3----------| 
B|-----3-----3----3------3-----3----------3-----3----------3-----3---3---|
G|-------0-----0-----------2-----2----------0-----0----------0-----0-----|
D|-0-----------------0---------------2--------------0-2------------------|
A|-----------------------------------------------------------------------|
E|-----------------------------------------------------------------------|

Gtr.2
e|------------------------------------------------------------------------| 
B|------------------------------------------------------------------------|
G|------------------------------------------------------------------------|
D|--------------------7-7-7-7-7-7-7-7---5-5-5-5-5-5-5-5-------------------|
A|-5-5-5-5-5-5-5-5----5-5-5-5-5-5-5-5---3-3-3-3-3-3-3-3---2-2-2-2-2-2-2-2-|
E|-3-3-3-3-3-3-3-3----------------------------------------0-0-0-0-0-0-0-0-|

Pre-chorus - (x1) Gtr. 1
  Am7               Bm11
e|----------------------------------| 
B|-------------1----------------0---|
G|---------0----------------2-------|
D|-----2----------------0-----------|
A|-0----------------2---------------|
E|----------------------------------|

Gtr.2
e|------------------------------------------------------------------------| 
B|------------------------------------------------------------------------|
G|------------------------------------------------------------------------|
D|-2-2-2-2-2-2-2-2----2-2-2-2-2-2-2-2---0-0-0-0-0-0-0-0---0-0-0-0-0-0-0-0-|
A|-0-0-0-0-0-0-0-0----0-0-0-0-0-0-0-0---2-2-2-2-2-2-2-2---2-2-2-2-2-2-2-2-|
E|------------------------------------------------------------------------|


Chorus - (x2)
   C5                A7(no 3rd)        Em      
e|-3-3-3-3-3-3-3-3---3-3-3-3-3-3-3-3---2-2-2-2-2---2---2-2-2-2-2---2------| 
B|-3-3-3-3-3-3-3-3---3-3-3-3-3-3-3-3---3-3-3-3-3---3---3-3-3-3-3---3------|
G|-0-0-0-0-0-0-0-0---0-0-0-0-0-0-0-0---0-0-0-0-0---0---0-0-0-0-0---0------|
D|-2-2-2-2-2-2-2-2---2-2-2-2-2-2-2-2---x-x-x-x-x---x---x-x-x-x-x---x------|
A|-3-3-3-3-3-3-3-3---0-0-0-0-0-0-0-0---2-2-2-2-2---2---2-2-2-2-2---2------|
E|-------------------------------------0-0-0-0-0---0---0-0-0-0-0---0------|

chorus continued - (x1)
   C5                A7(no 3rd)        Em                G
e|-3-3-3-3-3-3-3-3---3-3-3-3-3-3-3-3---3-3-3-3-3-3-3-3---3-3-3-3-3-3-3-3--| 
B|-3-3-3-3-3-3-3-3---3-3-3-3-3-3-3-3---3-3-3-3-3-3-3-3---3-3-3-3-3-3-3-3--|
G|-0-0-0-0-0-0-0-0---0-0-0-0-0-0-0-0---0-0-0-0-0-0-0-0---0-0-0-0-0-0-0-0--|
D|-2-2-2-2-2-2-2-2---2-2-2-2-2-2-2-2---2-2-2-2-2-2-2-2---0-0-0-0-0-0-0-0--|
A|-3-3-3-3-3-3-3-3---0-0-0-0-0-0-0-0---2-2-2-2-2-2-2-2---2-2-2-2-2-2-2-2--|
E|-------------------------------------0-0-0-0-0-0-0-0---3-3-3-3-3-3-3-3--|


Gtr.2 Solo (x1)
e|----------------------------------20-19--------------------------------------| 
B|-20-19----------------21-20-19----------22-20-19-20-19-------20-22-19--20-22-|
G|-------19----------19----------19----------------------19--------------------|
D|----------22-21-22----------------------------------------21-----------------|
A|-----------------------------------------------------------------------------|
E|-----------------------------------------------------------------------------|

solo continued
e|---------------------| 
B|-20-(20)-19----------|
G|------------19-------|
D|---------------22-21-|
A|---------------------|
E|---------------------|

Bridge - (x1)
e|---------------------------------------------------------|
B|---------------------------------------------------------|
G|--------------7-7--5-5-5-5-5-5--7-7----------------7-7---|   
D|-2-2-2-2-2-2--7-7--5-5-5-5-5-5--7-7--2-2-2-2-2-2---7-7---|
A|-2-2-2-2-2-2--5-5--3-3-3-3-3-3--5-5--2-2-2-2-2-2---5-5---|
E|-0-0-0-0-0-0--5-5--3-3-3-3-3-3--5-5--0-0-0-0-0-0---5-5---|


e|----------------------------------------|(x1)
B|----------------------------------------|
G|----------------------------------------|
D|-7-7-7-7-7-7-7-7----9-9-9-9-9-9-9-9-----|
A|-7-7-7-7-7-7-7-7----9-9-9-9-9-9-9-9-----|
E|-5-5-5-5-5-5-5-5----7-7-7-7-7-7-7-7-----|

   Cmaj7(no 3rd)
e|------------------------------| 
B|------------------------------|
G|-4-4-4-4---4---4-4-4-5-4---4--|
D|-x-x-x-x---x---x-x-x-x-x---x--|
A|-3-3-3-3---3---3-3-3-3-3---3--|
E|------------------------------|


Chorus - (x2)
   C5                A7(no 3rd)        Em      
e|-3-3-3-3-3-3-3-3---3-3-3-3-3-3-3-3---2-2-2-2-2---2---2-2-2-2-2---2------| 
B|-3-3-3-3-3-3-3-3---3-3-3-3-3-3-3-3---3-3-3-3-3---3---3-3-3-3-3---3------|
G|-0-0-0-0-0-0-0-0---0-0-0-0-0-0-0-0---0-0-0-0-0---0---0-0-0-0-0---0------|
D|-2-2-2-2-2-2-2-2---2-2-2-2-2-2-2-2---x-x-x-x-x---x---x-x-x-x-x---x------|
A|-3-3-3-3-3-3-3-3---0-0-0-0-0-0-0-0---2-2-2-2-2---2---2-2-2-2-2---2------|
E|-------------------------------------0-0-0-0-0---0---0-0-0-0-0---0------|

chorus continued - (x1)
   C5                A7(no 3rd)        Em                G
e|-3-3-3-3-3-3-3-3---3-3-3-3-3-3-3-3---3-3-3-3-3-3-3-3---3-3-3-3-3-3-3-3--| 
B|-3-3-3-3-3-3-3-3---3-3-3-3-3-3-3-3---3-3-3-3-3-3-3-3---3-3-3-3-3-3-3-3--|
G|-0-0-0-0-0-0-0-0---0-0-0-0-0-0-0-0---0-0-0-0-0-0-0-0---0-0-0-0-0-0-0-0--|
D|-2-2-2-2-2-2-2-2---2-2-2-2-2-2-2-2---2-2-2-2-2-2-2-2---0-0-0-0-0-0-0-0--|
A|-3-3-3-3-3-3-3-3---0-0-0-0-0-0-0-0---2-2-2-2-2-2-2-2---2-2-2-2-2-2-2-2--|
E|-------------------------------------0-0-0-0-0-0-0-0---3-3-3-3-3-3-3-3--|


e|-3-3-3-3-3-3-3-3---3-3-3-3-3-3-3-3----|(x3) 
B|-3-3-3-3-3-3-3-3---3-3-3-3-3-3-3-3----|
G|-0-0-0-0-0-0-0-0---0-0-0-0-0-0-0-0----|
D|-2-2-2-2-2-2-2-2---2-2-2-2-2-2-2-2----|
A|-3-3-3-3-3-3-3-3---0-0-0-0-0-0-0-0----|
E|--------------------------------------|

   Cmaj7(no 3rd)
e|------------------------------| 
B|------------------------------|
G|-4-4-4-4---4---4-4-4-5-4---4--|
D|-x-x-x-x---x---x-x-x-x-x---x--|
A|-3-3-3-3---3---3-3-3-3-3---3--|
E|------------------------------|

https://tabs.ultimate-guitar.com/t/the_all-american_rejects/stab_my_back_ver2_tab.htm