Tablature guitare : The All-American Rejects – Night Drive

All-American Rejects
Night Drive Intro

Tuning: Normal eBGDAE

Intro Pt. 1

|---------------------------------5-------------|
|-----------------------------------------------|
|-------------------5-5-xxx---------------------|
|---7-7-xxx-2-2-xxx-5-5-xxx-5-5-xx--------------|
|---7-7-xxx-2-2-xxx-3-3-----5-5-xx--------------|
|---5-5-----0-0-------------3-3-----------------|

Intro Pt. 2

|-----------------------------------------------|
|-----------------------------------------------|
|---------------------5-5-555-------------------|
|---7-7-777--2-2-222--5-5-555--5-5-555----------|   x2
|---7-7-777--2-2-222--3-3-333--5-5-555----------|
|---5-5-555--0-0-000-----------3-3-333----------|

https://tabs.ultimate-guitar.com/t/the_all-american_rejects/night_drive_intro_tab.htm