Tablature guitare : The All-American Rejects – My Paper Heart

-------------------------------------------------------------------------------
                "My Paper heart" ver2 - All-American Rejects
-------------------------------------------------------------------------------
Tabbed by: Mike Borland
Email: Mike8215@aol.com

Tuning: Standard

  Intro:
e|-------------------------------------------------------------l------------|
B|-------------------------------------------------------------l------------|
G|---5--------------------------5------------------------------l--5---------|
D|---5------5------7-----3------5-------5------7------5----3---l--5--Rest---|
A|---3------5------7-----3------3-------5------7------5----3---l--3---------|
E|----------3------5-----1--------------3------5------3----1---l------------|
   play...heart...wait...be...simple...run...catch...if...can.


  Verse:
e|------------------------------------------------------|
B|------------------------------------------------------|
G|--5---------------------------------------------------|
D|--5---------5--------7-----------5----------3---------|
A|--3---------5--------7-----------5----------3---------|
E|------------3--------5-----------3----------1---------|
  Tears...  your...  taste...  something...  new.
  I know...  on...  easiest...    I...       you. 
  
  
  Pre chorus:
e|---------------------------------------------------------------------------|
B|---------------------------------------------------------------------------|
G|--------------------------------------------------5------------------------|
D|------7-----------------------5-------------------5------------------------|
A|------7-----------------------5-------------------3------------------------|
E|------5-----------------------3--------------------------------------------|
   So bottle up old love. And throw it out to sea. Wash it away as you cry.
   A year has passed.     The seasons go.

  
  Chorus:
e|-------------------------------------------------------------l------------|
B|-------------------------------------------------------------l------------|
G|---5--------------------------5------------------------------l--5---------|
D|---5------5------7-----3------5-------5------7------5----3---l--5--Rest---|
A|---3------5------7-----3------3-------5------7------5----3---l--3---------|
E|----------3------5-----1--------------3------5------3----1---l------------|
   play...heart...wait...be...simple...run...catch...if...can.


  *REPEAT All 1 time.


  Interlude: *Timing not shown here (just listen to the song)
e|----------------------------------------------------|
B|----------------------------------------------------|
G|--5555555555555555555555----5-----------------------|
D|--5555555555555555555555----5--5--7--3--------------|
A|--3333333333333333333333----3--5--7--3--------------|
E|-------------------------------3--5--1--------------|
                     Ba ba ba. La la la la. Ba ba ba...
 
e|---------------------------------------------------------------------|
B|---------------------------------------------------------------------|
G|-----5---------------------------------------------------------------|
D|-----5-----------5----------------------7---------------------3------| 4X
A|-----3-----------5----------------------7---------------------3------|
E|-----------------3----------------------5---------------------1------|
  Summer time, the nights are so long. The leaves fall down. So do I...

   
  End song on...
e|-----------|
B|-----------|
G|-----------|
D|---5-------|
A|---5-------|
E|---3-------|

https://tabs.ultimate-guitar.com/t/the_all-american_rejects/my_paper_heart_tab.htm