Tablature guitare : The All-American Rejects – It Ends Tonight

Artist : All-American Rejects
Song   : It Ends Tonight
Album  : Move Along
Tuning : (low to high) E A D G C D

Intro - Piano
-------------

Intro
D|----------0--------------------0-----------0--------0--------0----| 
C|----0--------0-----0-----0--------0-----0--------0--------0-------|
G|-0-----0--------2-----0-----0--------2--------9--------9----------|
D|------------------------------------------------------------------|
A|------------------------------------------------------------------|
E|------------------------------------------------------------------|


D|-(0)--0---------0--------0-----------0--------------------2-----------| 
C|-------------0--------0--------0--------0-----0-----0--------0-----0--|
G|---------10--------9--------0-----0--------2-----0-----0--------0-----|
D|----------------------------------------------------------------------|
A|----------------------------------------------------------------------|
E|----------------------------------------------------------------------|


D|---------------0-----------3--------2--------0-------| 
C|-(0)-----0--------0-----0-----0--------0--------0----|
G|------2-----2--------2-----------2--------2----------|
D|-----------------------------------------------------|
A|-----------------------------------------------------|
E|-----------------------------------------------------|

Chorus
D|--0~~~~~~~~~~~~~~~~~~0~~~~~~~~~~~~~~~~0~~~~~~~~~~~~~~~~0~~~~~~~~~~~~~~| 
C|--0~~~~~~~~~~~~~~~~~~0~~~~~~~~~~~~~~~~0~~~~~~~~~~~~~~~~0~~~~~~~~~~~~~~|
G|--0~~~~~~~~~~~~~~~~~~0~~~~~~~~~~~~~~~~0~~~~~~~~~~~~~~~~4~~~~~~~~~~~~~~|
D|--2~~~~~~~~~~~~~~~~~~3~~~~~~~~~~~~~~~~7~~~~~~~~~~~~~~~~5~~~~~~~~~~~~~~|
A|--3~~~~~~~~~~~~~~~~~~3~~~~~~~~~~~~~~~~7~~~~~~~~~~~~~~~~5~~~~~~~~~~~~~~|
E|---------------------1~~~~~~~~~~~~~~~~5~~~~~~~~~~~~~~~~3~~~~~~~~~~~~~~|

Verse
D|-------------------------------------0-0-0---0-------0-0-0-------------| 
C|-------------------------------------0-0-0---0-------0-0-0---0---------|
G|---------0---------------0---0-------x-x-x-7-x-------x-x-x---0---------|
D|-----7-7-7---7-------3-3-3---3-------7-7-7---7-0-----7-7-7---0---7\----|
A|-----7-7-7---7-------3-3-3---3---5-5-5-5-5---5---7---7-7-7-------7\----|
E|-5-5-5-5-5-5-5---1-1-1-1-1-1-1-----------------------------------------|


D|-------------------------------------0-0-0---0----------------------| 
C|-----0-0-0---0-----------------------0-0-0---0----------------------|
G|-----0-0-0---0-----------0---0-------x-x-x-7-x-------7-5-5---5------|
D|-----x-x-x---x-------3-3-3---3-------7-7-7---7-0-----5-5-5---5------|
A|-0-0-0-0-0-0-0-------3-3-3---3---5-5-5-5-5---5---7---7-7-7-7-7------|
E|-----------------1-1-1-1-1-1-1--------------------------------------|

Pre-Chorus
D|-----------------------------------------------------------------| 
C|-----------------------------------------------------------------|
G|-----------------------------------------------------------------|
D|-3-3-3-3-3-3-3-3-3-3-3-3-3-3-3-3------5-5-5---5-----5-5-5---5----|
A|-3-3-3-3-3-3-3-3-3-3-3-3-3-3-3-3--3-3-3-3-3-3-3-3-3-3-3-3-3-3----|
E|-1-1-1-1-1-1-1-1-1-1-1-1-1-1-1-1---------------------------------|


D|---------------------------------------------------------------| 
C|---------------------------------------------------------------|
G|---------------------------------------7-7-7---7--7-7-7-7-7----|
D|-----3-3-3---3---3------2-2-2---2------7-7-7---7--7-7-7-7-7----|
A|-----3-3-3---3---3------3-3-3---3--5-5-5-5-5-5-5--5-5-5-5-5----|
E|-1-1-1-1-1-1-1-1-1--0-0-0-0-0-0-0------------------------------|


Chorus
D|-----------------------------------------------------------------------| 
C|-----------------------------------------------------------------------|
G|-----------------------------------------------------------------------|
D|-5-5-5-5-5-5-5-5---3-3-3-3-3-3-3-3---7-7-7-7-7-7-7-7---5-5-5-5-5-5-5-5-|
A|-3-3-3-3-3-3-3-3---3-3-3-3-3-3-3-3---7-7-7-7-7-7-7-7---5-5-5-5-5-5-5-5-|
E|-------------------1-1-1-1-1-1-1-1---5-5-5-5-5-5-5-5---3-3-3-3-3-3-3-3-|

Bridge
D|----------------------------------------------------------------| 
C|----------------------------------------------------------------|
G|----------------------------------------------------------------|
D|-7-7-7-7-7-7-7---5-5-5-5-5-5-5-------------------3-3-3-3-3-3-3--|
A|-7-7-7-7-7-7-7---5-5-5-5-5-5-5---5-5-5-5-5-5-5---3-3-3-3-3-3-3--|
E|-5-5-5-5-5-5-5---3-3-3-3-3-3-3---2-2-2-2-2-2-2---1-1-1-1-1-1-1--|


D|------------------------------------------------------------------| 
C|------------------------------------------------------------------|
G|------------------------------------------------------------------|
D|-7-7--7-7--7-7--7-7--7--------------------------------------------|
A|-7-7--7-7--7-7--7-7--7---2-2--2-2--2-2--2-2--2\---5-5-5-5-5-5-5---|
E|-5-5--5-5--5-5--5-5--5---3-3--3-3--3-3--3-3--3\---2-2-2-2-2-2-2---|


D|----------------------------------------------------------------------| 
C|----------------------------------------------------------------------|
G|----------------------------------------------------------------------|
D|-3-3-3-3-3-3-3---2~~~~~~~~~~~~3~~~~~~~~~~~~7~~~~~~~~~~~~5~~~~~~~~~~~~~|
A|-3-3-3-3-3-3-3---3~~~~~~~~~~~~3~~~~~~~~~~~~5~~~~~~~~~~~~5~~~~~~~~~~~~~|
E|-1-1-1-1-1-1-1---0~~~~~~~~~~~~1~~~~~~~~~~~~-------------3~~~~~~~~~~~~~|

Pre-Chorus
D|-------------------------------------------------------------------------| 
C|-------------------------------------------------------------------------|
G|-5-----------------------------------------------------------------------|
D|-x---3---7---5---5-5-5-5-5-5-5-5--3-3-3-3-3-3-3-3--------5-5-5--x-x-x-x--|
A|-3---x---x---x---3-3-3-3-3-3-3-3--3-3-3-3-3-3-3-3--5-5-5-5-5-5--x-x-x-x--|
E|-----1---5---3--------------------1-1-1-1-1-1-1-1--3-3-3-3-3-3--x-x-x-x--|

Chorus
D|-----------------------------------------------------------------------| 
C|-----------------------------------------------------------------------|
G|-----------------------------------------------------------------------|
D|-5-5-5-5-5-5-5-5---3-3-3-3-3-3-3-3---7-7-7-7-7-7-7-7---5-5-5-5-5-5-5-5-|
A|-3-3-3-3-3-3-3-3---3-3-3-3-3-3-3-3---7-7-7-7-7-7-7-7---5-5-5-5-5-5-5-5-|
E|-------------------1-1-1-1-1-1-1-1---5-5-5-5-5-5-5-5---3-3-3-3-3-3-3-3-|

Outro Solo
D|--------------------------------------------------------------------------| 
C|-12-12-13-------15-13----------13-------15-13----------13-------15-13-----|
G|----------12-12-------12----------12-12-------12----------12-12-------12--|
D|-------------------------15-14-------------------15-14--------------------|
A|--------------------------------------------------------------------------|
E|--------------------------------------------------------------------------|

D|-------------------12---------------------------------------------------| 
C|-------13-------15----15-13-12-13-------15-13----------13--------15-13--|
G|----------12-12-------------------12-12-------12----------12-12---------|
D|-15-14-------------------------------------------15-14------------------|
A|------------------------------------------------------------------------|
E|------------------------------------------------------------------------|

D|----------------------------------------------------------------| 
C|----------13-------15-13----------13-------15-13----------------|
G|-12----------12-12-------12----------12-12-------12-------------|
D|----15-14-------------------15-14-------------------15-14----5--|
A|----------------------------------------------------------15/3--|
E|----------------------------------------------------------------|

https://tabs.ultimate-guitar.com/t/the_all-american_rejects/it_ends_tonight_tab.htm