Tablature guitare : The All-American Rejects – I For You

I For You - The All-American Rejects

Tabbed by: Dan
(corrections to twelve.tuesdays[AT]gmail.com)

Tuning: Standard (capo 2)

fill 1 (x2)
e|-----------------------------|
B|-------0-------------0-------|
G|---0-----0---0---0-----0---0-|
D|-----0-----0---0---0-----0---|
A|-----------------------------|
E|-3---------------------------|

verse (occasionally the G bass notes are played on the open G string, listen to 
the track for changes)
e|---------------------------------------------------------|
B|-------0-------------0-------------0-------------0-------|
G|---0-----0---0---0-----0---0---0-----0---0---0-----0---0-|
D|-----0-----0-------0-----0-------0-----0-------0-----0---|
A|-----------------------------3-------------3-------------|
E|-3-------------3-----------------------------------------|

e|---------------------------------------------------------|
B|-------0-------------0-------------3-------------1-------|
G|---0-----0---0---0-----0---0-----0---0---0---0-----0---0-|
D|-----0-----0-------0-----0---0h4-------4---2---2-----2---|
A|---------------------------------------------------------|
E|-3-------------3-----------------------------------------|

e|---------------------------------------------------------|
B|-------0-------------0-------------0-------------0-------|
G|---0-----0---0---0-----0---0---0-----0---0---0-----0---0-|
D|-----0-----0-------0-----0-------0-----0-------0-----0---|
A|-----------------------------3-------------3-------------|
E|-3-------------3-----------------------------------------|

e|---------------------------------------------------------|
B|-------0-------------0-------------0-------------3-------|
G|---0-----0---0---0-----0---0---0-----0---0-----0-----0---|
D|-----0-----0-------0-----0-------0-----0---0h4-----4---4-|
A|---------------3-----------------------------------------|
E|-0---------------------------0---------------------------|

fill 2 (same as fill 1 but with the bass note played twice)...
e|-----------------------------|
B|-------0-------------0-------|
G|---0-----0---0---0-----0---0-|
D|-----0-----0-------0-----0---|
A|-----------------------------|
E|-3-------------3-------------|

repeat verse
repeat fill 2

pre-bridge
e|-------------------------------------------------------------------------------------|
B|-------0-------------0-------------0-------------0-------------0-------------3-------|
G|---0-----0---0---0-----0---0---0-----0---0---0-----0---0---0-----0---0-----0---0---0-|
D|-----0-----0-------0-----0-------0-----0-------0-----0-------0-----0---0h4-------4---|
A|---------------3---------------------------3-----------------------------------------|
E|-0---------------------------0---------------------------0---------------------------|

repeat fill 2

bridge
e|--------------------------------------------------------------------|
B|-------3-------------0-------------0-------0------0---------0-------|
G|-----0---0---0---0-----0---0-----0-------0------0---0---0-----0---0-|
D|-0h4-------4-------0-----0-----0-------0------------------------0---|
A|---------------3-------------3-------5--------7-------7-------------|
E|----------------------------------------------------------0---------|

e|-------------------------------------------------------|
B|-------3-------------0-------------0-----3-----0-------|
G|-----0---0---0---0-----0---0---0-----0-----0-----0---0-|
D|-0h4-------4-------0-----0-------0-----0-----0-----0---|
A|---------------3-------------3-------------------------|
E|-------------------------------------------------------|

repeat fill 2
repeat verse

then fill 3 (same as fill 2 but with slightly different run at the end)...
e|---------------------------------|
B|-------0-------------------------|
G|---0-----0---0-----0---0---0---0-|
D|-----0-----0---0-----0-------0---|
A|---------------------------------|
E|-3---------------3-------2-------|

then the pre-bridge again (slightly different)...
e|---------------------------------------------------------------------------------------|
B|-------0-------------3-------------0-------------3-------------0-------------3-0-------|
G|---0-----0---0---0-----0---0---0-----0---0---0-----0---0---0-----0---0-----0-----0-----|
D|-----0-----0-------0-----0-------0-----0-------0-----0-------0-----0---0h4---------4p0-|
A|---------------3---------------------------3-------------------------------------------|
E|-0---------------------------0---------------------------0-----------------------------|

then finally this variation on fill 1 to end...
e|---------------------------------------------|
B|-------0-------------0-------------0---------|
G|---0-----0---0---0-----0---0---0-----0-------|
D|-----0-----0---0---0-----0-------0-----0-----|
A|-----------------------------------------0---|
E|-3---------------------------3-------------3-|


lyrics & basic chords (relative to capo)...

G               G
Say the words I cannot say

C            C
Say them on another day

G                   G                  D          C
Fragile words like these will cut your tongue

      G                 G
Was I good enough? Was I bad enough?

      C                       C
When I wanted more, yeah, you had enough

Em                  C           Em              D             G
 But nobody's gonna try for you, nobody's gonna do like I for you

(chords same as first verse)
And every slow-lit cigarette that nervous hands can barely get the courage
I could always feel your eyes
And those dresses you made look like gowns
You're a sinner but the devil didn't turned you down

Em                   C           Em              D              G    G/F#
 But, nobody's gonna try for you, nobody's gonna do like I for you

Em              C           Em                 C
 Nobody's gonna try for you, and nobody's gonna lie for you

Em                  D              G
 And nobody's gonna do like I for you

Bridge chords: D C C D E E

(chords same as first verse)
Hold me like you never could, I'll hold you like I said I would
Air or light won't breathe nor shine between
With your feather lips, yeah, you fly away
Well I hope they come back down someday, 'cos

(chords same as first chorus)
Nobody's gonna try for you, nobody's gonna do like I for you
Somebody's getting by for you, I don't bend, I just break in two
Somebody like me... I'd die for you

https://tabs.ultimate-guitar.com/t/the_all-american_rejects/i_for_you_tab.htm