Tablature guitare : The All-American Rejects – Another Heart Calls

/=slide
h=hammer-on
p=pull-off

Guitar 1 is a mix of rhythm, bass, and keyboard, Guitar 2 is a mix of lead and keyboard.

Intro 00:00
guitar 1
e|----------------|----------------|
b|----------------|----------------|
g|--2---0---0-----|--2---0---0-----|
d|---3---3---23-20|---3---3---23-20|
a|--------3-------|--------3-------|
d|0---3-----------|0---3-----------|
guitar 2
e|----------------|----------------|
b|----------------|----------------|
g|--2---0---0-----|--2---0---0-----|
d|---3---3---23-20|---3---3---23-2-|
a|--------3-------|--------3------3/5
d|0---3-----------|0---3-----------|

Verse 1 00:19
guitar 1
e|----------------|----------------|----------------|
b|----------------|----------------|----------------|
g|----------------|----------------|----------------|
d|------------3-20|------------3-20|------------3-20|
a|--------3-------|--------3-------|--------3-------|
d|0---3-----------|0---3-----------|0---3-----------|
guitar 2
e|----------------|----------------|----------------|
b|----------------|----------------|----------------|
g|----------------|----------------|----------------|
d|---------------3/5----3h5p3------|--3---2---5-3-20|
a|----------------|----------------|--------3-------|
d|----------------|----------------|0---3-----------|

guitar 1
e|----------------|----------------|----------------|
b|----------------|----------------|----------------|
g|--2---0---0-----|----------------|----------------|
d|---3---3---23-20|----------------|----------------|
a|--------3-------|--------3-------|--------3-------|
d|0---3-----------|0---3-----------|0---3-----------|
guitar 2
e|----------------|----------------|----------------|
b|----------------|----------------|----------------|
g|--2---0---0-----|----------------|----------------|
d|---3---3---23-20|--3---2---5-3-20|--3---2---5-3-20|
a|--------3-------|--------3-------|--------3-------|
d|0---3-----------|0---3-----------|0---3-----------|

Pre-Chorus 1 00:58
guitar 1
e|----------------|----------------|
b|----------------|----------------|
g|3-------5-------|3-------5-------|
d|3x8-3---5x16----|3x8-3---5x16----|
a|1---3x8-3-------|1---3x8-3-------|
d|----3-----------|----3-----------
guitar 2
e|----------------|----------------|
b|----------------|----------------|
g|----2-2---------|----2-2---------|
d|3-3-----2-23202-|3-3-----2-23202-|
a|----------------|----------------|
d|----------------|----------------|

Chorus 1 01:11
guitar 1
e|----------------|----------------|
b|----------------|----------------|
g|7---------------|----------------|
d|7---------------|----------------|
a|5---1-------3---|5---1-------3---|
d|--------3-------|--------3-------|
guitar 2
e|----------------|----------------|
b|----------------|----------------|
g|----------------|----------------|
d|----------------|----------------|
a|5---1-------3---|5---1-------3---|
d|--------3-------|--------3-------|

Pre-Verse/Solo 01:25
guitar 1
e|--------------------------------|
b|--------------------------------|
g|--------------------------------|
d|--------------------------------|
a|----------------------------55/0|
d|--------------------------------|
guitar 2
e|--------------------------------|
b|---5h6----8h10---6p5----8p65----|
g|3/5----5/7----3/5----5/7----5/7-|
d|--------------------------------|
a|--------------------------------|
d|--------------------------------|

Verse 2 01:32
guitar 1
e|--------------------------------|
b|--------------------------------|
g|----------------5555-5555555-555|
d|0000-0003333-3335555-5555555-555|x3
a|0000-0003333-3333333-3333333-333|
d|0000-0003333-333----------------|
guitar 2
e|--------------------------------|
b|--------------------------------|
g|----------------5555-5555555-555|
d|0000-0003333-3335555-5555555-555|x3
a|0000-0003333-3333333-3333333-333|
d|0000-0003333-333----------------|

Pre-Chorus 2 01:51
guitar 1
e|----------------|----------------|
b|----------------|----------------|
g|3-------5-------|3-------5-------|
d|3x8-3---5x16----|3x8-3---5x16----|
a|1---3x8-3-------|1---3x8-3-------|
d|----3-----------|----3-----------|
guitar 2
e|----------------|----------------|
b|----------------|----------------|
g|----2---------33|3-3-----55555555|
d|3-------2-232033|3-3-3-3-55555555|
a|--------------11|1-1-3-3-33333333|
d|----------------|----3-3---------|

Chorus 2 02:03
guitar 1
e|----------------|
b|----------------|
g|----3-------5---|
d|0---3x8-3---5x8-|x6
a|0x8-1---3x8-3---|
d|0-------3-------|
guitar 2
e|----------------|
b|----------------|
g|----3-------5---|
d|0---3x8-3---5x8-|x6
a|0x8-1---3x8-3---|
d|0-------3-------|

Bridge 02:44
guitar 1
e|----------------|------------|
b|----------------|------------|
g|--------7---5---|--------5---|
d|5---3---7x8-5x8-|5---3---5x8-|
a|5x8-3x8-5---3---|5x8-3x8-3---|
d|5---3-----------|5---3-------|
guitar 2
e|----------------|------------|
b|----------------|------------|
g|--------7---5---|--------5---|
d|5---3---7x8-5x8-|5---3---5x8-|
a|5x8-3x8-5---3---|5x8-3x8-3---|
d|5---3-----------|5---3-------|

Pre-Chorus 3 02:55
guitar 1
e|----------------|----------------|
b|----------------|----------------|
g|3-------5-------|3-------5-------|
d|3-------5x16----|3x8-3---5x16----|
a|1-------3-------|1---3x8-3-------|
d|----------------|----3-----------|
guitar 2
e|----------------|----------------|
b|----------------|----------------|
g|3-------5-------|3-------5-------|
d|3-------5x16----|3x8-3---5x16----|
a|1-------3-------|1---3x8-3-------|
d|----------------|----3-----------|

Chorus 3 3:08
guitar 1
e|----------------|   |----------------| |----------------|
b|----------------|   |----------------| |----------------|repeat
g|----3-------5---|   |----3-------5---| |----3-------5---|until
d|0---3x8-3---5x8-|x6 |-0--3x8-3---5x8-| |0---3x8-3---5x8-|song
a|0x8-1---3x8-3---|   |-0x61---3x8-3---| |0x8-1---3x8-3---|fades
d|0-------3-------|   |-0------3-------| |0-------3-------|
guitar 2
e|----------------|   |----------------| |----------------|
b|----------------|   |----------------| |----------------|repeat
g|----3-------5---|   |----3-------5---| |----3-------5---|until
d|0---3x8-3---5x8-|x6 |-0--3x8-3---5x8-| |0---3x8-3---5x8-|song
a|0x8-1---3x8-3---|   |-0x61---3x8-3---| |0x8-1---3x8-3---|fades
d|0-------3-------|   |-0------3-------| |0-------3-------|

https://tabs.ultimate-guitar.com/t/the_all-american_rejects/another_heart_calls_ver3_tab.htm