Tablature guitare : System Of A Down – Suite Pee

Author
Difficulty
Tuning
intermediate
C G C F A D
SYSTEM OF A DOWN
TOXICITY
Drop C

CAN HEAR AN ACOUSTIC AND ELECTRIC AT START... PRETTY SURE THERE PLAYING THE SAME THING...

Palm mute - *
Strike and mute - ^


[Intro]  0:00
D|----5-----5-----5-----5-----5-----5-----8-----8-----8-----8-----8-----8--|
A|-3-----3-----3-----3-----3-----3-----6-----6-----6-----6-----6-----6-----|
F|-------------------------------------------------------------------------|
C|-------------------------------------------------------------------------|
G|-------------------------------------------------------------------------|
C|-------------------------------------------------------------------------|

D|----5-----5-----5--6-----6--5-----5-----8-----10----10--8-----8--6-----6-|
A|-3-----3-----3--------3--------3-----6-----6-----6---------6--------6----|
F|-------------------------------------------------------------------------|
C|-------------------------------------------------------------------------|
G|-------------------------------------------------------------------------|
C|-------------------------------------------------------------------------|


[Chorus]
D|--------------------------------|--------------------------------------|
A|--------------------------------|-I THINK-ITS FAIRLY OBVIOUS WHAT TO---|
F|--------------------------------|--------PLAY AFTER THIS PART----------|
C|-0--3-2-0-2-0----8-888-7-777----|-------------------8-8888-7-7777------|
G|-0--3-2-0-2-0----8-888-7-777--X2|-32023200-32023200-8-8888-7-7777------|
C|-0--3-2-0-2-0----8-888-7-777----|-32023200-32023200-8-8888-7-7777------|
   ^  * * * * ^                     ******** ********


0:36
[Verse]
D|-------------------------------------------------------------------------|
A|---10----10----10----10----10----10----13----13----13----13----13----13--|
F|-7----7-----7-----7-----7-----7-----10----10----10----10----10----10-----|
C|-------------------------------------------------------------------------| x1
G|-------------------------------------------------------------------------|
C|-------------------------------------------------------------------------|


D|-------------------------------------------------------------------------|
A|---10----10---10--11---11--10----10----13----15----15--13----13--11----11|
F|-7----7-----7--------7--------7-----10----10----10--------10--------10---|
C|-------------------------------------------------------------------------|
G|-------------------------------------------------------------------------|
C|-------------------------------------------------------------------------|\
                                                                             |>x2.5
D|---------------------------------------------12-------13-------12--------|/
A|---10----10----10----10----10----10----13-------13-------13-------13-----|
F|-7----7-----7-----7-----7-----7-----10----10-------10-------10-------10--|
C|-------------------------------------------------------------------------|
G|-------------------------------------------------------------------------|
C|-------------------------------------------------------------------------|

Gtr2. Half way through verse (slight palm mute)
D|----------------------------------------------------------|
A|----------------------------------------------------------|
F|----------------------------------------------------------|
C|----------------------------------------------------------|
G|-0~00~0~0~0~0~-0~00~0~0~0~0~-3~33~3~3~3~3~-3~33~3~3~3~3~--|
C|-0~00~0~0~0~0~-0~00~0~0~0~0~-3~33~3~3~3~3~-3~33~3~3~3~3~--|


                             1:13  Play Chorus

                             1:38  Play Verse - (Same besides one note)

                             2:16  Play Chorus



2:40 Breakdown thing! (this is how Daron plays it on the video and live)
D|-----------------------------------|-------------------------------------|
A|-----------------------------------|-------------------------------------|
F|-----------------------------------|-------------------------------------|
C|-----------------------------------|-------------------------------------|
G|-----------------------------------|--3-2-0-0-0-0------------------------|
C|-12-12-12-12-12-12-15-12-12-14~--X4|--3-2-0-0-0-0---X8-------------------|
not strongly palm muted                 * * * * * *

D|-----------------------------------|-------------------------------------|
A|-----------------------------------|-------------------------------------|
F|-----------------------------------|-------------------------------------|
C|-----------------------------------|-------------------------------------|
G|-0--0-0-0-0-3-2-0------------------|--3-2-0-0-0-0------------------------|
C|-0--0-0-0-0-3-2-0-2b-------------X4|--3-2-0-0-0-0---X8-------------------|
   *  * * * * * * *                     * * * * * *

               3:03  Play Chorus (BUT REALLY HEAVY AND LOUD... LIKE YOU MEAN IT >:o)


Back to Breakdown thing  3:27
D|-----------------------------------|-------------------------------------|
A|-----------------------------------|-------------------------------------|
F|-----------------------------------|-------------------------------------|
C|-----------------------------------|-------------------------------------|
G|--3-2-0-0-0-0----------------------|-0--0-0-0-0-3-2-0--------------------|
C|--3-2-0-0-0-0---X8-----------------|-0--0-0-0-0-3-2-0-2b----X4-----------|
    * * * * * *                        *  * * * * * * *


OMFG THE END 2ND TAB =p
please rate and comment



************************************

| b  Bend
| ~  Vibrato

************************************

https://tabs.ultimate-guitar.com/s/system_of_a_down/suite_pee_ver7_tab.htm