Tablature guitare : System Of A Down – Sugar

system of a down
sugar


Bass and drums [intro]
G|---------------|
D|---------------|
A|---------------|
E|-6-5-4-3-2-1-0-|

[Chorus](reapet several times)
      the kombucha mushroom people  siting  around  allday
e|----------------------------------------------------------|
B|----------------------------------------------------------|
G|----------------------------------------------------------|
D|-0----7----6----5----0----7----6----5----0----7----6----5-|
A|-0----7----6----5----0----7----6----5----0----7----6----5-|
E|-0----7----6----5----0----7----6----5----0----7----6----5-|

G|----------------------------------------------------------|
D|----------------------------------------------------------|
A|----------------------------------------------------------|
E|-0----7----6----5----0----7----6----5----0----7----6----5-|

    WHO    can  belive  you WHO    can  belive  you
e|----------------------------------------------------------|
B|----------------------------------------------------------|
G|----------------------------------------------------------|
D|-0----7----6----5----0----7----6----5----0----7----6----5-|
A|-0----7----6----5----0----7----6----5----0----7----6----5-|
E|-0----7----6----5----0----7----6----5----0----7----6----5-|

G|----------------------------------------------------------|
D|----------------------------------------------------------|
A|----------------------------------------------------------|
E|-0----7----6----5----0----7----6----5----0----7----6----5-|

    Let your mother prraayy
e|------------------|
B|------------------|
G|------------------|
D|-0----7----6----5-|
A|-0----7----6----5-|
E|-0----7----6----5-|

G|------------------|
D|------------------|
A|------------------|
E|-0----7----6----5-|

Bass guitar on its own CArry on same rythum
                                      SSSUUUGGGAAARRR
G|----------------------------------------------------------|
D|----------------------------------------------------------|
A|----------------------------------------------------------|
E|-0----7----6----5----0----7----6----5----0----7----6----5-|

[Verse]
e|----13-13-12-------10--10--|
B|-10----------13-10---------|
G|---------------------------|
D|---------------------------|
A|---------------------------|
E|---------------------------|
End the verse here (MY BRAINS!!!)

e|-10---10---10---10---|
B|---10---10---10---10-|
G|---------------------|
D|---------------------|
A|---------------------|
E|---------------------|

[Chorus](reapet several times)
      the kombucha mushroom people  siting  around  allday
e|----------------------------------------------------------|
B|----------------------------------------------------------|
G|----------------------------------------------------------|
D|-0----7----6----5----0----7----6----5----0----7----6----5-|
A|-0----7----6----5----0----7----6----5----0----7----6----5-|
E|-0----7----6----5----0----7----6----5----0----7----6----5-|

G|----------------------------------------------------------|
D|----------------------------------------------------------|
A|----------------------------------------------------------|
E|-0----7----6----5----0----7----6----5----0----7----6----5-|

    WHO    can  belive  you WHO    can  belive  you
e|----------------------------------------------------------|
B|----------------------------------------------------------|
G|----------------------------------------------------------|
D|-0----7----6----5----0----7----6----5----0----7----6----5-|
A|-0----7----6----5----0----7----6----5----0----7----6----5-|
E|-0----7----6----5----0----7----6----5----0----7----6----5-|

G|----------------------------------------------------------|
D|----------------------------------------------------------|
A|----------------------------------------------------------|
E|-0----7----6----5----0----7----6----5----0----7----6----5-|

    Let your mother prraayy
e|------------------|
B|------------------|
G|------------------|
D|-0----7----6----5-|
A|-0----7----6----5-|
E|-0----7----6----5-|

G|------------------|
D|------------------|
A|------------------|
E|-0----7----6----5-|

Bass guitar on its own carry on same rythum
                                      SSSUUUGGGAAARRR
G|----------------------------------------------------------|
D|----------------------------------------------------------|
A|----------------------------------------------------------|
E|-0----7----6----5----0----7----6----5----0----7----6----5-|

[Verse]
e|----13-13-12-------10--10--|
B|-10----------13-10---------|
G|---------------------------|
D|---------------------------|
A|---------------------------|
E|---------------------------|

End the verse here (SUGAR!!!)
e|-10---10---10---10---|
B|---10---10---10---10-|
G|---------------------|
D|---------------------|
A|---------------------|
E|---------------------|

[Chorus](reapet several times)
      the kombucha mushroom people  siting  around  allday
e|----------------------------------------------------------|
B|----------------------------------------------------------|
G|----------------------------------------------------------|
D|-0----7----6----5----0----7----6----5----0----7----6----5-|
A|-0----7----6----5----0----7----6----5----0----7----6----5-|
E|-0----7----6----5----0----7----6----5----0----7----6----5-|

G|----------------------------------------------------------|
D|----------------------------------------------------------|
A|----------------------------------------------------------|
E|-0----7----6----5----0----7----6----5----0----7----6----5-|

    WHO    can  belive  you WHO    can  belive  you
e|----------------------------------------------------------|
B|----------------------------------------------------------|
G|----------------------------------------------------------|
D|-0----7----6----5----0----7----6----5----0----7----6----5-|
A|-0----7----6----5----0----7----6----5----0----7----6----5-|
E|-0----7----6----5----0----7----6----5----0----7----6----5-|

G|----------------------------------------------------------|
D|----------------------------------------------------------|
A|----------------------------------------------------------|
E|-0----7----6----5----0----7----6----5----0----7----6----5-|

    Let your mother prraayy
e|------------------|
B|------------------|
G|------------------|
D|-0----7----6----5-|
A|-0----7----6----5-|
E|-0----7----6----5-|

G|------------------|
D|------------------|
A|------------------|
E|-0----7----6----5-|


[Interlude]
     i sit    my dyslight room  no lights    no music   JUST ANGER
e|--------------------------------------------------------------------|
B|--------------------------------------------------------------------|
G|--------------------------------------------------------------------|
D|-1------1-0-----------------1----------1-0---------1------------1-0-|
A|-1------1-0-----------------1----------1-0---------1------------1-0-|
E|-1------1-0-----------------1----------1-0---------1------------1-0-|

   im away forever   but im feeling better
e|------------------------------------------|
B|------------------------------------------|
G|------------------------------------------|
D|----------------1-------------------------|
A|----------------1-------------------------|
E|----------------1-------------------------|

  what do i feel? what do i say? *** you and all gos away
 P.M------------------------------------------------------|
e|---------------------------------------------------------|
B|---------------------------------------------------------|
G|---------------------------------------------------------|
D|-1-0-0-0-1-0-1-0-0-0-1-0-1-0-0-0-1-0-1-0-0-0-1-0-1-0-0-0-|
A|-1-0-0-0-1-0-1-0-0-0-1-0-1-0-0-0-1-0-1-0-0-0-1-0-1-0-0-0-|
E|-1-0-0-0-1-0-1-0-0-0-1-0-1-0-0-0-1-0-1-0-0-0-1-0-1-0-0-0-|

  how do i feel? what do i say? in the end it all go's away
 P.M------------------------------------------------------|
e|---------------------------------------------------------|
B|---------------------------------------------------------|
G|---------------------------------------------------------|
D|-1-0-0-0-1-0-1-0-0-0-1-0-1-0-0-0-1-0-1-0-0-0-1-0-1-0-0-0-|
A|-1-0-0-0-1-0-1-0-0-0-1-0-1-0-0-0-1-0-1-0-0-0-1-0-1-0-0-0-|
E|-1-0-0-0-1-0-1-0-0-0-1-0-1-0-0-0-1-0-1-0-0-0-1-0-1-0-0-0-|

  near end of song
 P.M------|
e|---------|
B|---------|
G|---------|   gradully realease the palm mute 😀
D|-0-7-6-5-|
A|-0-7-6-5-|
E|-0-7-6-5-|



************************************

| P.M Palm Mute

************************************

https://tabs.ultimate-guitar.com/s/system_of_a_down/sugar_ver5_tab.htm