Tablature guitare : System Of A Down – Roulette

Author
Tuning
C G C F A D
System Of A Down - Roulette

Album - Steal This Album    Track 15

This song is a very acoustic and simple song once you get the hang of the
pattern... this is my first time tabbing something so bare with me plz...email me
if u got any suggestions on wether its wrong or not...The tab is written in the
order that the song goes so have fun!


[Intro]
 
D|---1----1-----5-------------------------------------------------|
A|--------------------5-----8-----8-----3-----5-------------------|
F|----------------------------------------------------------------|
C|-0---0-0--0-3---------------------------------------------------| x4
G|----------------0-3---3/6---6-6---0-1---1/3---3-----------------|
C|----------------------------------------------------------------|


[2nd Riff]
 
D|---1-----1------------------------------------------------------|
A|---------------2-----2-----5-----5-----3-----5------------------|
F|----------------------------------------------------------------|
C|-0---0-0--------------------------------------------------------| x2
G|-----------0-0---0-0---0-3---3-3---0-1---1/3---3----------------|
C|----------------------------------------------------------------|

D|---1----1-----5-------------------------------------------------|
A|--------------------5-----8-----8-----3-----5-------------------|
F|----------------------------------------------------------------| x4
C|-0---0-0--0-3---------------------------------------------------|
G|----------------0-3---3/6---6-6---0-1---1/3---3-----------------|
C|----------------------------------------------------------------|

D|---1-----1------------------------------------------------------|
A|---------------2-----2-----5-----5-----3-----5------------------|
F|----------------------------------------------------------------| x4
C|-0---0-0--------------------------------------------------------|
G|-----------0-0---0-0---0-3---3-3---0-1---1/3---3----------------|
C|----------------------------------------------------------------|


[Solo]  

D|-10-10-12-13-12-13-15-12-13-15-13-12-10-12-13-12-10-10----------|
A|-------------------------------------------------------10-10-10-|
F|----------------------------------------------------------------| x2
C|----------------------------------------------------------------|
G|----------------------------------------------------------------|
C|----------------------------------------------------------------|

D|-----------------------------------8-----------8----------8-6-6-|
A|-11-13-11-10-8-10-11-10-8-8-------10-H-12-P-10-9-H-10-P-9-9-7-7-|
F|----------------------------10-10-------------------------------|
C|----------------------------------------------------------------|
G|----------------------------------------------------------------|
C|----------------------------------------------------------------|
   
D|---1----1-----5-------------------------------------------------|
A|--------------------5-----8-----8-----3-----5-------------------|
F|----------------------------------------------------------------|
C|-0---0-0--0-3---------------------------------------------------| x4
G|----------------0-3---3/6---6-6---0-1---1/3---3-----------------|
C|----------------------------------------------------------------|

D|---1-----1------------------------------------------------------|
A|---------------2-----2-----5-----5-----3-----5------------------|
F|----------------------------------------------------------------|
C|-0---0-0--------------------------------------------------------|  x4
G|-----------0-0---0-0---0-3---3-3---0-1---1/3---3----------------|
C|----------------------------------------------------------------|


***********************
|H    Hammer-on
|P    Pull-off
|/    Slide up
***********************

https://tabs.ultimate-guitar.com/s/system_of_a_down/roulette_tab.htm