Tablature guitare : System Of A Down – Lonely Day

Difficulty
Tuning
novice
C# G# C# F# A# D#
[Intro/Verse]

D#|-------------------------------------------------------------------------|
A#|------1-----------0------------1------------0----------------------------|
F#|----2---2-------2---2--------0---0--------1---1--------------------------|
C#|--2-------0---2-------2----2-------2----0-------0------------------------|
G#|0------------------------3-----------------------------------------------|
C#|------------3-------------------------2----------------------------------|


[Chorus]

D#|-------------------------------------------------------------------------|
A#|-------------------------------------------------------------------------|
F#|-2--2-2-2--------------5--5-5-5------------------------------------------|
C#|-2--2-2-2---3--3-3-3---5--5-5-5---2--2-2-2-------------------------------|
G#|-0--0-0-0---3--3-3-3---3--3-3-3---2--2-2-2-------------------------------|
C#|------------3--3-3-3--------------2--2-2-2-------------------------------|


[Verse]

D#|-------------------------------------------------------------------------|
A#|------1-----------0------------1------------0----------------------------|
F#|----2---2-------2---2--------0---0--------1---1--------------------------|
C#|--2-------0---2-------2----2-------2----0-------0------------------------|
G#|0------------------------3-----------------------------------------------|
C#|------------3-------------------------2----------------------------------|


[Solo]

D#|--12----12--------------17-17-16v----------------------------------------|
A#|-----13----13-13/15------------------------------------------------------|
F#|-------------------------------------------------------------------------|
C#|-------------------------------------------------------------------------|
G#|-------------------------------------------------------------------------|
C#|-------------------------------------------------------------------------|


[Bridge]

D#|-------------------------------------------------------------------------|
A#|-------------------------------------------------------------------------|
F#|-------------------------------------------------------------------------|
C#|-3--3-3-3---2--2-2-2---5--5-5-5---7--7-7-7-----x2------------------------|
G#|-3--3-3-3---2--2-2-2---5--5-5-5---7--7-7-7-------------------------------|
C#|-3--3-3-3---2--2-2-2---5--5-5-5---7--7-7-7-------------------------------|


[Solo]

D#|--------------------12---12-10-8--7--8--7----8--7---10-------------------|
A#|--------------------13---13-12-10-8--10-8----10-8-9-12-------------------|
F#|--------------------------------------------------9----------------------|
C#|3-x12--2-x12-------------------------------------------------------------|
G#|3------2-----------------------------------------------------------------|
C#|3------2-----------------------------------------------------------------|
  .pm    .pm

D#|-----------10------------12------------13------------15------------------|
A#|--13\12/13-12---13\12/13-13---13\12/13-15---13\12/13-17------------------|
F#|--14\13/14------14\13/14------14\13/14------14\13/14---------------------|
C#|-------------------------------------------------------------------------|
G#|-------------------------------------------------------------------------|
C#|-------------------------------------------------------------------------|


D#|--17-15-13-15-13-12-13-12-10-12-10-8-------------19--| incoherent doodling?
A#|--18-17-15-17-15-13-15-13-12-13-12-10--10v-------20--|
F#|-----------------------------------------------------|
C#|-----------------------------------------------------|
G#|-----------------------------------------------------|
C#|-----------------------------------------------------|


[Chorus]

D#|-------------------------------------------------------------------------|
A#|-------------------------------------------------------------------------|
F#|-2--2-2-2--------------5--5-5-5------------------------------------------|
C#|-2--2-2-2---3--3-3-3---5--5-5-5---2--2-2-2-------------------------------|
G#|-0--0-0-0---3--3-3-3---3--3-3-3---2--2-2-2-------------------------------|
C#|------------3--3-3-3--------------2--2-2-2-------------------------------|


[Outro]

D#|-------------------------------------------------------------------------|
A#|------1-----------0------------1------------0----------------------------|
F#|----2---2-------2---2--------0---0--------1---1--------------------------|
C#|--2-------0---2-------2----2-------2----0-------0------------------------|
G#|0------------------------3-----------------------------------------------|
C#|------------3-------------------------2----------------------------------|


D#|-------------------------------------------------------------------------|
A#|-------------10----------------------------------------------------------|
F#|---10--9-----------------------------------------------------------------|
C#|-------------------------------------------------------------------------|
G#|-----7---7---------------------------------------------------------------|
C#|-------------------------------------------------------------------------|

https://tabs.ultimate-guitar.com/s/system_of_a_down/lonely_day_tab.htm