Tablature guitare : Slipknot – Duality

Author/Artist: SlipknoT
Title: Duality
Album: Vol. 3 The Subliminal Verses
Tabbed By: Paulska
E-mail Address: Squallmaster24@aol.com

Tuning: B F# B E G# C#

#----------------------------------PLEASE NOTE--------------------------------#
#This file is the author's own work and represents their interpretation of the#
#song. You may only use this file for private study, scholarship, or research.#
#-----------------------------------------------------------------------------#


  Guitar 1
C#|--------------------|--------------------|----------------------------|
G#|--------------------|--------------------|----------------------------|
E |--------------------|--------------------|----------------------------|
B |--------------------|--------------------|----------------------------|  X2
F#|--------------------|--------------|C#------|----------------------------|
B |---0-0-0-0-0-0-0-0--|---3-3-3-3-3-3-3-3--|---6-1-1-1-1-1-1-1----------|

  Guitar 1 & 2
C#|--------------------|--------------------|----------------------------|
G#|--------------------|--------------------|----------------------------|
E |--------------------|--------------------|----------------------------|
B |--------------------|--------------------|----------------------------|  X2
F#|---0-0-0-0-0-0-0-0--|---3-3-3-3-3-3-3-3--|---6-1-1-1-1-1-3-1----------|
B |---0-0-0-0-0-0-0-0--|---3-3-3-3-3-3-3-3--|---6-1-1-1-1-1-3-1----------|

Guitar 1 & 2

B |--------------------|--------------------|-------------------------|
G#|--------------------|--------------------|-------------------------|
B |--------------------|--------------------|-------------------------|
B |--------------------|--------------------|-------------------------|
G#|---0-0-0-----0-0----|---0-0-0---0-1-0-1--|-3*B---------------------|
B |---0-0-0-----0-0----|---0-0-0---0-1-0-1--|-------------------------|
                                   PM|---|
                                                                  X2

B |--------------------|--------------------|-------------------------|
G#|--------------------|--------------------|-------------------------|
B |--------------------|--------------------|-------------------------|
B |--------------------|--------------------|-------------------------|
G#|---0-0-0-----0-0----|---0-0-0---0-1-0-1--|-------------------------|
B |---0-0-0-----0-0----|---0-0-0---0-1-0-1--|-3*~---------------------|
                                   PM|---|

Guitar 1
B |--------------------|-----------------------------|
G#|--------------------|-----------------------------|
B |--------------------|-----------------------------|
B |--------------------|--------------------| X10----|
G#|-0000-3333----------|-----------------------------|
B |-----------555-777--|-333-555-111-000000----------|
  PM|------------------------------------------------|

  Guitar 2 Comes In On 6th timB round
C#|--------------------|--------------------------|
G#|--------------------|--------------------------|
E |-222----------------|--------------------------|
B |-----222-333--------|-333-555-333-22222--------| X4
F#|-------------22222--|--------------------------|
B |--------------------|--------------------------|

  Guitar 1 & 2
B |--------------------|-------------------------|
G#|--------------------|-------------------------|
B |--------------------|-------------------------|
B |--------------------|-------------------------|
G#|--3-3-33-3-3-3-33---|--3-3-3-33-3-2-1-11------|
B |--3-3-33-3-3-3-33---|--3-3-3-33-3-2-1-11------|
 PM|---------------------------------------------|

  Guitar 1 & 2
C#|--------------------|--------------------|----------------------------|
G#|--------------------|--------------------|----------------------------|
E |--------------------|--------------------|----------------------------|
B |--------------------|--------------------|----------------------------|  X2
F#|-0-0-0-0-0-0-0-0-0--|-3-3-3-3-3-3-3-3-3--|-6-1-1-1-1-1-1-3-1----------|
B |-0-0-0-0-0-0-0-0-0--|-3-3-3-3-3-3-3-3-3--|-6-1-1-1-1-1-1-3-1----------|

  Guitar 1
B |--------------------|-------------------------|
G#|--------------------|-------------------------|
B |--------------------|-------------------------|
B |--------------------|-------------------------|
G#|-0000-3333----------|-------------------------|
B |-----------555-777--|-333-555-111-000000------|
  PM|--------------------------------------------|

  Guitar 1 & 2
B |--------------------|-------------------------|
G#|--------------------|-------------------------|
B |--------------------|-------------------------|
B |--------------------|-------------------------|
G#|-----0000-3333------|-10\----3-5-1-0----------|
B |--------------------|-10\----3-5-1-0----------|
    PM|------------------------------------------|

  Guitar 1
B |--------------------|--------------------------|
G#|--------------------|--------------------------|
B |--------------------|--------------------------|
B |--------------------|--------------------------| X4
G#|-0000-3333----------|--------------------------|
B |-----------555-777--|-333-555-111-000000-------|
  PM|---------------------------------------------|

  Guitar 2 Comes In On 2nd timB round
C#|--------------------|--------------------------|
G#|--------------------|--------------------------|
E |-222----------------|--------------------------|
B |-----222-333--------|-333-555-333-22222--------| X2
F#|-------------22222--|--------------------------|
B |--------------------|--------------------------|

  Guitar 1 & 2
B |--------------------|-------------------------|
G#|--------------------|-------------------------|
B |--------------------|-------------------------|
B |--------------------|-------------------------|
G#|--3-3-33-3-3-3-33---|--3-3-3-33-3-2-1-11------|
B |--3-3-33-3-3-3-33---|--3-3-3-33-3-2-1-11------|
  PM|--------------------------------------------|

  Guitar 1 & 2
C#|--------------------|--------------------|----------------------------|
G#|--------------------|--------------------|----------------------------|
E |--------------------|--------------------|----------------------------|
B |--------------------|--------------------|----------------------------|  X4
F#|-0-0-0-0-0-0-0-0-0--|-3-3-3-3-3-3-3-3-3--|-6-1-1-1-1-1-1-3-1----------|
B |-0-0-0-0-0-0-0-0-0--|-3-3-3-3-3-3-3-3-3--|-6-1-1-1-1-1-1-3-1----------|

  Guitar 2 Play This At ThB Beginning Of ThB 3rd And 4th turn
C#|-----------------------------|
G#|-----------------------------|
E |-----------------------------|
B |-----------------------------|
F#|-5-5/8-8/10-10/12h13p12------|
B |-----------------------------|

  Guitar 1 & 2
B |--------------------|--------------------|-------------------------|
G#|--------------------|--------------------|-------------------------|
B |--------------------|--------------------|-------------------------|
B |--------------------|--------------------|-------------------------|
G#|---0-0-0-----0-0----|---0-0-0---0-1-0-1--|-3*B---------------------|
B |---0-0-0-----0-0----|---0-0-0---0-1-0-1--|-------------------------|
                                   PM|---|
                                                                  X2

B |--------------------|--------------------|-------------------------|
G#|--------------------|--------------------|-------------------------|
B |--------------------|--------------------|-------------------------|
B |--------------------|--------------------|-------------------------|
G#|---0-0-0-----0-0----|---0-0-0---0-1-0-1--|-------------------------|
B |---0-0-0-----0-0----|---0-0-0---0-1-0-1--|-3*~---------------------|
                                   PM|---|

  On ThB 2nd Turn, Play This
B |--------------------|--------------------|-------------------------|
G#|--------------------|--------------------|-------------------------|
B |--------------------|--------------------|-------------------------|
B |--------------------|--------------------|-------------------------|
G#|---0-0-0-----0-0----|---0-0-0---0-1-0----|-666333------------------|
B |---0-0-0-----0-0----|---0-0-0---0-1-0----|-666333------------------|
                                 PM|----------------------------------|

  Guitar 1 & 2
B |--------------------|--------------------|-------------------------|
G#|--------------------|--------------------|-------------------------|
B |--------------------|--------------------|-------------------------|
B |--------------------|--------------------|-------------------------|
G#|---1-1-1-----1-1----|---1-1-1---1-0-1----|-3*B---------------------|
B |---1-1-1-----1-1----|---1-1-1---1-0-1----|-------------------------|
                                 PM|---|

C#|--------------------|---------------------|                       X2
G#|--------------------|---------------------|
E |--------------------|---------------------|
B |--------------------|---------------------|
F#|---1-1-1-----1-1----|---1-1-1--1-0-0-6-1--|
B |---1-1-1-----1-1----|---1-1-1--1-0-0-6-1--|

  Guitar 1 & 2
B |--------------------|-------------------------|
G#|--------------------|-------------------------|
B |--------------------|-------------------------|
B |--------------------|-------------------------|
G#|--3-3-33-3-3-3-33---|--3-3-3-33-3-2-1-11------|
B |--3-3-33-3-3-3-33---|--3-3-3-33-3-2-1-11------|
 PM|---------------------------------------------|

  Guitar 1 & 2
B |--------------------|-------------------------|
G#|--------------------|-------------------------|
B |--------------------|-------------------------|
B |--------------------|-------------------------| Not SurB About This Bit
G#|--000333111444116---|--3336664447776610-------|
B |--000333111444116---|--3336664447776610-------|
 PM|---------------------------------------------|

  Guitar 1 & 2
C#|--------------------|--------------------|----------------------------|
G#|--------------------|--------------------|----------------------------|
E |--------------------|--------------------|----------------------------|
B |--------------------|--------------------|----------------------------|  X4
F#|-0-0-0-0-0-0-0-0-0--|-3-3-3-3-3-3-3-3-3--|-6-1-1-1-1-1-1-3-1----------|
B |-0-0-0-0-0-0-0-0-0--|-3-3-3-3-3-3-3-3-3--|-6-1-1-1-1-1-1-3-1----------|

  Guitar 2 Play This At ThB Beginning Of ThB 3rd And 4th turn
C#|-----------------------------|
G#|-----------------------------|
E |-----------------------------|
B |-----------------------------|
F#|-5-5/8-8/10-10/12h13p12------|
B |-----------------------------|

  Guitar 1 & 2
B |--------------------|--------------------|-------------------------|
G#|--------------------|--------------------|-------------------------|
B |--------------------|--------------------|-------------------------|
B |--------------------|--------------------|-------------------------|
G#|12\0-0-0-----0000---|---0-0-0---0-1-0-1--|-3*B---------------------|
B |12\0-0-0-----0000---|---0-0-0---0-1-0-1--|-------------------------|
                                   PM|---|


B |--------------------|--------------------|-------------------------|
G#|--------------------|--------------------|-------------------------|
B |--------------------|--------------------|-------------------------|
B |--------------------|--------------------|-------------------------|
G#|---0-0-0-----0000---|---0-0-0---0-1-0----|-666333-1-1-1------------|
B |---0-0-0-----0000---|---0-0-0---0-1-0----|-666333-1-1-1------------|
                                  PM|---------------------------------|

B |--------------------|--------------------|-------------------------|
G#|--------------------|--------------------|-------------------------|
B |--------------------|--------------------|-------------------------|
B |--------------------|--------------------|-------------------------|
G#|---0-0-(0)---000(0)-|---0-0-(0)-0-1-0-1--|-------------------------|
B |---0-0-(0)---000(0)-|---0-0-(0)-0-1-1----|-3*~---------------------|
   PM|----------------------------------------------------------------|

B |--------------------|--------------------|-------------------------|
G#|--------------------|--------------------|-------------------------|
B |--------------------|--------------------|-------------------------|
B |--------------------|--------------------|-------------------------|
G#|---0-0-0-----0000---|---0-0-0---0-1-0-1--|-3*B---------------------|
B |---0-0-0-----0000---|---0-0-0---0-1-0-1--|-------------------------|
                                  PM|---|

B |--------------------|--------------------|-------------------------|
G#|--------------------|--------------------|-------------------------|
B |--------------------|--------------------|-------------------------|
B |--------------------|--------------------|-------------------------|
G#|---0-0-0-----0-0----|---0-0-0---0-1-0-1--|-------------------------|
B |---0-0-0-----0-0----|---0-0-0---0-1-0-1--|-3*~---------------------|
                                  PM|---|



************************************

| (n)  Ghost note
| h    Hammer-on
| p    Pull-off
| /    Slide up
| \    Slide down
| PM   Palm Mute 

************************************

https://tabs.ultimate-guitar.com/s/slipknot/duality_ver2_tab.htm

Duality
Slipknot

To the best of my abilities.

Drop B Tuning, for those who didn't know.
(Explained below)
Drop D tuning, then 1 and 1|2 down. So B, F#, B, E, G#, C#.

Ive seen some versions on here and other sites (that arnt as good as this one)and I 
to tab my version, because others didn't sound right.

*ATTENTION!* 
Sorry, but this tab has thousands of views, and only 9 ratings, please rate
you could. Im not begging, I just want some feed back. Thanks, and check out my other tabs.

Yes maggots, there are Slipknot tabs.

**Update: 5|25|2009: Minor adjustments and fixed the interlude.
**Update: 7|11|2009: Minor adjustments (spaces, misspells, etc.)

Gtr. 1: Mick Thomson
Gtr. 2: James Root


[INTRO/Chorus]

"I push my fingers into my-" (whispered)

   Gtr. 1 (Dist.)
C#|-----------------------------------------------------------------|
G#|-----------------------------------------------------------------|
E |-----------------------------------------------------------------|
B |-----------------------------------------------------------------|
F#|-----------------------------------------------------------------|
B |---0--0--0--0--0--0--0--0--0--0--0--0--0--1/2/3--3---------------|

C#|-----------------------------------------------------------------|
G#|-----------------------------------------------------------------|
E |-----------------------------------------------------------------|
B |-----------------------------------------------------------------|
F#|-----------------------------------------------------------------|
B |---3--3--3--3--3--3--3--6--6--1--1--1--1--3--1--0----------------|
                                                    [Repeat]

   Gtr. 2 (Dist.)
C#|-----------------------------------------------------------------|
G#|-----------------------------------------------------------------|
E |-----------------------------------------------------------------|
B |-----------------------------------------------------------------|
F#|-----------------------------------------------------------------|
B |---0--0--0--0--0--0--0--0--0--0--0--0--0--0--0--3----------------|

C#|-----------------------------------------------------------------|
G#|-----------------------------------------------------------------|
E |-----------------------------------------------------------------|
B |-----------------------------------------------------------------|
F#|-----------------------------------------------------------------|
B |---3--3--3--3--3--3--3--6--6--1--1--1--1--1--1--0----------------|
                                                    [Repeat]

   [Heavier]
   Gtr. 1 and 2
C#|-----------------------------------------------------------------|
G#|-----------------------------------------------------------------|
E |-----------------------------------------------------------------|
B |-----------------------------------------------------------------|
F#|-----------------------------------------------------------------|
B |---0--0--0--0--0--0--0--0--0--0--0--0--0--1--3--3----------------|

C#|-----------------------------------------------------------------|
G#|-----------------------------------------------------------------|
E |-----------------------------------------------------------------|
B |-----------------------------------------------------------------|
F#|-----------------------------------------------------------------|
B |---3--3--3--3--3--3--3--6--6--1---12/----------------------------|

 Gtr. 1 and 2- *Compositive Arrangement **With Octave ***set for 1 octave above.

C#|-----------------------------------------------------------------|
G#|-----------------------------------------------------------------|
E |-----------------------------------------------------------------|
B |-----------------------------------------------------------------|
F#|-----------------------------------------------------------------|
B |---0--0--0--0--0--0--0--0--0--0--0--0--0--0--0--3----------------|

C#|-----------------------------------------------------------------|
G#|-----------------------------------------------------------------|
E |-----------------------------------------------------------------|
B |-----------------------------------------------------------------|
F#|-----------------------------------------------------------------|
B |---3--3--3--3--3--3--3--6\1--1--1--1--1--3--1--0-----------------|

C#|-----------------------------------------------------------------|
G#|-----------------------------------------------------------------|
E |-----------------------------------------------------------------|
B |-----------------------------------------------------------------|
F#|-----------------------------------------------------------------|
B |---0--0--0--0--0--0--0--0--0--0--0--0--0--0--0--3----------------|

C#|-------------------------------------[------]--------------------|
G#|-------------------------------------[------]--------------------|
E |-------------------------------------[------]--------------------|
B |-------------------------------------[------]--------------------|
F#|-------------------------------------[------]--------------------|
B |---3--3--3--3--3--3--6\1--1--1--1--3-[-/11\-]--------------------|
                                      [Gtr. 1 slide]

C#|-------------------------------------[------]--------------------|
G#|-------------------------------------[------]--------------------|
E |-------------------------------------[------]--------------------|
B |-------------------------------------[------]--------------------|
F#|-------------------------------------[------]--------------------|
B |-------------------------------------[-/15\-]--------------------|


[INTERLUDE]

   Gtr. 1 and 2
C#|-----------------------------------------------------------------|
G#|-----------------------------------------------------------------|
E |-----------------------------------------------------------------|
B |-----------------------------------------------------------------|
F#|---0--0--0----0--0----0--0--0----0--1--0--3--3*------------------|
B |---0--0--0----0--0----0--0--0----0--1--0--3----------------------|

C#|-----------------------------------------------------------------|
G#|-----------------------------------------------------------------|
E |-----------------------------------------------------------------|
B |-----------------------------------------------------------------|
F#|---0--0--0----0--0----0--0--0----0--1--0--6\---------------------|
B |---0--0--0----0--0----0--0--0----0--1--0--6\--1*-----------------|


[VERSE]

   Gtr. 2
C#|-----------------------------------------------------------------|
G#|-----------------------------------------------------------------|
E |-----------------------------------------------------------------|
B |-----------------------------------------------------------------|
F#|-----------------------------------------------------------------|
B |---7~--10~--5~--7~--3~--5~--1~--0~-------------------------------|
 [Tremolo picking]

C#|-----------------------------------------------------------------|
G#|-----------------------------------------------------------------|
E |-----------------------------------------------------------------|
B |-----------------------------------------------------------------|
F#|---12~--7~--8~-----------8~--10~--8~--7~-------------------------|
B |----------------9~--10~------------------------------------------|
 [Tremolo picking]


[Pre-Chorus]

C#|-----------------------------------------------------------------|
G#|-----------------------------------------------------------------|
E |-----------------------------------------------------------------|
B |-----------------------------------------------------------------|
F#|---3--3--3-3--3---3--3--3-3--3---3--3--3-3--3---3--3--2--2--1--1-|
B |---3--3--3-3--3---3--3--3-3--3---3--3--3-3--3---3--3--2--2--1--1-|


[REPEAT CHORUS]

[REPEAT VERSE]

[REPEAT PRE-CHORUS]

[REPEAT CHORUS]

   [Played over Chorus riffs on extra guitars: ]
   The first one.
   Gtr. 3 (Dist.)
C#|-----------------------------------------------------------------|
G#|-----------------------------------------------------------------|
E |---14--14\7--7/10--10/12--12/14--14/15--14-----------------------|
B |----X---X-X--X--X---X--X---X--X---X--X---X-----------------------|
F#|---12--12\5--5/-8---8/10--10/12--12/13--12-----------------------|
B |-----------------------------------------------------------------|

   The second one.
   Gtr. 4 (Dist.)
C#|--------------------------------------------------------------------|
G#|--------------------------------------------------------------------|
E |--------------------------------------------------------------------|
B |------------10-------10----------10-------10----------10-------10---|
F#|---13-12-10----13-12----13-12-10----13-12----13-12-10----13-12------|
B |--------------------------------------------------------------------|


[REPEAT INTERLUDE]


[END] HALF-TIME FEEL

   Gtr. 1 and 2
C#|----------------------------------------------------------------------|
G#|----------------------------------------------------------------------|
E |----------------------------------------------------------------------|
B |----------------------------------------------------------------------|
F#|---0--1--0-------------------------1--1--1--1-1-11-1---------------3*-|
B |---0--1--0---6--6--6--3--3--3--6---1--1--1--1-1-11-1--1--3--1--6\1----|


[2ND PRE-CHORUS]

C#|-----------------------------------------------------------------|
G#|-----------------------------------------------------------------|
E |-----------------------------------------------------------------|
B |-----------------------------------------------------------------|
F#|---------------------------------------------0--0----------------|
B |---0--0--0--3--3--3--1--1--1--5--5--5--3--3----------------------|

                                                          [Cont.]
C#|-----------------------------------------------------------------|
G#|-----------------------------------------------------------------|
E |-----------------------------------------------------------------|
B |-----------------------------------------------------------------|
F#|---5--5--5--0--0--0--3--3--3--2--2--2--------0-------------------|
B |---------------------------------------5--5----------------------|

[REPEAT CHORUS]

[REPEAT INTERLUDE ] 

*palm muted

This is it, again, as put in my other tabs, correct me of my mistakes, lets make a
tab. Rate please.


************************************

| \  Slide down
| /  Slide up
| ~  Vibrato
| *  Palm muted

************************************

https://tabs.ultimate-guitar.com/s/slipknot/duality_ver8_tab.htm