Tablature guitare : Red Hot Chili Peppers – Stadium Arcadium

 

Source : https://tabs.ultimate-guitar.com/r/red_hot_chili_peppers/stadium_arcadium_

Stadium Arcadium
(revised)


Red Hot Chili Peppers
Stadium Arcadium
Tabber: Aaron Yeo
Dated: May 3rd, 2006 (don't you just love torrents?)


[Intro/Verse]

e|--------------------------------|--------------------------------|
B|--------------------------------|-------2-------2----------------|
G|-------2-------2----------------|-----2-------2------------------|
D|-----4-------4------------------|---2-------2--------------------|
A|---4-------4--------------------|-0------------------------------|
E|-2------------------------------|--------------------------------|

e|--------------------------------|-0---------------0--------------|
B|--------------------------------|-2---------------0--------------|
G|-------2-------2----------------|-2---------------1--------------|
D|-----4-------4------------------|-2---------------2--------------|
A|---4-------4--------------------|-0---------------2--------------|
E|-2------------------------------|-----------------0--------------|


[Chorus]

e|---|---|---|---|
B|---|-3-|-2-|---|
G|-4-|-2-|-2-|-1-|
D|-4-|-0-|-2-|-2-|
A|-2-|-0-|-0-|-2-|
E|-2-|---|---|-0-|


[Verse 2] 

(with verse guitar riff)

Here either use a second guitar, or just play it on the same one. The studio

version has two guitars 'cause they're different effects.

e|-2--------------------------0---|--------------------------------|
B|--------------------------------|-2------------------------------|
G|--------------------------------|--------------------------------|
D|--------------------------------|--------------------------------|
A|--------------------------------|--------------------------------|
E|--------------------------------|--------------------------------|

e|--------------------------------|--------------------------------|----|
B|-2--------------------------0---|--------------------------------|----|
G|--------------------------------|-2---------------1--------------|----|
D|--------------------------------|--------------------------------|-4--|
A|--------------------------------|--------------------------------|----|
E|--------------------------------|--------------------------------|----|

|----4 measures of just the verse riff----|

(light distortion)

e|------------------------|----------------------------------|
B|------------------------|----------------------------------|
G|-5/6---4------5/6---4---|----------------------------------|
D|------------------------|-----------------------5/6-5------|
A|------------------------|----------------------------------|
E|------------------------|----------------------------------|

e|------------------------|-----------------------------|
B|-6/7---5------6/7---5---|----6/7---5---/9-----9-------|
G|------------------------|-----------------9-----9-----|
D|------------------------|-----------------------------|
A|------------------------|-----------------------------|
E|------------------------|-----------------------------|


[Chorus]

e|---|---|---|---|
B|---|-3-|-2-|---|
G|-4-|-2-|-2-|-1-|
D|-4-|-0-|-2-|-2-|
A|-2-|-0-|-0-|-2-|
E|-2-|---|---|-0-|


[Solo]

e|--------------------------------|----------------------------------|
B|--------------------------------|----------------------------------|
G|-------------------11-9---11-9--|--------------------9-------------|
D|------------------------9-------|---------------9/11---11-9-9/11---|
A|--------------------------------|----------------------------------|
E|--------------------------------|----------------------------------|

e|--------------------------------|----------------------------------|
B|---------------------9----------|----------------------------------|
G|------------------11------------|-------------------9-11-----------|
D|-------------9/11------11p9-9-7-|----------4-----11------11--9-----|
A|--------------------------------|----------------------------------|
E|--------------------------------|----------------------------------|

e|--------------------------------|--------------------------------|
B|----------------10-9----9/10----|------11/12--------10-9-9/10----|
G|-------------11------11------11-|-----------------------------11-|
D|--------------------------------|--------------------------------|
A|--------------------------------|--------------------------------|
E|--------------------------------|--------------------------------|

e|--------------------------------|----------------------------------|
B|--------------------------------|----------------------------------|
G|-------------------11--9-10/11-|--------------------9--------------|
D|--------------------------------|------------7/-9-11---11-9-9/11----|
A|--------------------------------|----------------------------------|
E|--------------------------------|----------------------------------|

e|---------------11---------------|---------9------------------------|
B|------------14----12------------|-----------12---12----------------|
G|---------------------11---------|-------------------11/-12-9-/11---|
D|---------11-------------10-9/11-|----------------------------------|
A|--------------------------------|----------------------------------|
E|--------------------------------|----------------------------------|


(verse guitar riff)

e|-2--------------------------0---|--------------------------------|
B|--------------------------------|-2------------------------------|
G|--------------------------------|--------------------------------|
D|--------------------------------|--------------------------------|
A|--------------------------------|--------------------------------|
E|--------------------------------|--------------------------------|

e|--------------------------------|--------------------------------|----|
B|-2--------------------------0---|--------------------------------|----|
G|--------------------------------|-2---------------1--------------|----|
D|--------------------------------|--------------------------------|-4--|
A|--------------------------------|--------------------------------|----|
E|--------------------------------|--------------------------------|----|

Then again with a slight difference:

e|--------------------------------|--------------------------------|
B|--------------------------------|-------2-------2--------2h3-2---|
G|-------2-------2----------------|-----2-------2----------------2-|
D|-----4-------4------------------|---2-------2--------------------|
A|---4-------4--------------------|-0------------------------------|
E|-2------------------------------|--------------------------------|

e|--------------------------------|-0---------------0--------------|
B|--------------------------------|-2---------------0--------------|
G|-------2-------2----------------|-2---------------1--------------|
D|-----4-------4------------------|-2---------------2--------------|
A|---4-------4--------------------|-0---------------2--------------|
E|-2------------------------------|-----------------0--------------|


[Chorus]

e|---|---|---|---|
B|---|-3-|-2-|---|
G|-4-|-2-|-2-|-1-|
D|-4-|-0-|-2-|-2-|
A|-2-|-0-|-0-|-2-|
E|-2-|---|---|-0-|

************************************

| h  Hammer-on
| p  Pull-off
| /  Slide up

************************************

ver2_tab.htm