Tablature guitare : Red Hot Chili Peppers – Slow Cheetah

play with capo on 6th fret

it's easy to play once you get the timing right
with capo on 6th fret, this is how John plays it!
Just hold the chords Em, G, A2 and C ond pluck the required strings
just pluck  the right strings

This is the main part of the verses
Dont forget -STANDARD TUNING WITH CAPO ON 6TH


   EM                 G                A2                C
E|-----------------|-----------------|-----------------|------------0----|
B|-----------------|-----------------|------------0----|-----------------|
G|------------0----|------------0----|------2----------|------0----------|
D|------2----------|------0----------|-----------------|-----------------|
A|-----------------|-----------------|--0---0---0---0--|--3---3---3---3--|
E|--0---0---0---0--|--3---3---3---3--|-----------------|-----------------|


THIS IS THE ALTERNATIVE SECOND PART OF THE VERSE

   EM                 G                A2                C
E|------2-----0----|-----------------|-----------------|------------0----|
B|-----------------|------3-----0----|-----------------|-----------------|
G|-----------------|-----------------|------2-----0----|-----------------|
D|-----------------|-----------------|-----------------|------2-----0----|
A|-----------------|-----------------|--0---0---0---0--|--3---3---3---3--|
E|--0---0---0---0--|--3---3---3---3--|-----------------|-----------------|


THE CHORDS FOR THE CHORUS ARE

C            G       A2
Slow Cheetah come before my forest.


the chords stay the same throughout the chorus
Just use your ear to hear the variations!
Enjoy! this sounds awesome and exactly  like the song when you get it right
because the strings have a nicer tone and ring through with the Capo.

https://tabs.ultimate-guitar.com/r/red_hot_chili_peppers/slow_cheetah_ver4_tab.htm