Tablature guitare : Red Hot Chili Peppers – Otherside

[Chorus]

e|------------------------------------|
B|------------------------------------|
G|------------------------------------|
D|---------7-7-9-7--------------------|
A|---7-7-7---------10-7---5-5-5-------|
E|------------------------------------|

e|------------------------------------|
B|------------------------------------|
G|------------------------------------|
D|---------7-7-9-7--------------------|
A|---7-7-7---------10-7-7-7-7--5-5-5--|
E|------------------------------------|

e|------------------------------------|
B|------------------------------------|
G|------------------------------------|
D|---------7-7-9-7--------------------|
A|---7-7-7---------10-7-7-7-7--5-5-5--|
E|------------------------------------|

e|------------------------------------|
B|------------------------------------|
G|---------------9-9-9----------------|
D|---------7-7-7-------9--9-9---------|
A|---7-7-7----------------------------|
E|------------------------------------|


[Verse 1]

e|------------------15----------------|   
B|----13----12------------------------|
G|------------------------------------|
D|------------------------------------| 
A|------------------------------------|  
E|------------------------------------|(x3)
                                                                               
e|-----3------------------5-----------|     
B|-----3------------------5-----------|  
G|-----4------------------6-----------|
D|-----5------------------7-----------|  
A|-----5------------------7-----------|   
E|-----3------------------5-----------| 


e|------------------15----------------|   
B|----13----12------------------------|
G|------------------------------------|
D|------------------------------------| 
A|------------------------------------|  
E|------------------------------------|(x3)
                                                                                
e|-----3------------------5-----------|     
B|-----3------------------5-----------|  
G|-----4------------------6-----------|
D|-----5------------------7-----------|
A|-----5------------------7-----------|   
E|-----3------------------5-----------|(x3)

e|-----3-----------|-------5----------|     
B|-----3-----------|-------5----------|  
G|-----4-----------|-------6----------|
D|-----5-----------|-------7----------|
A|-----5-----------|-------7----------|   
E|-----3-----------|-------5----------| 


[Chorus]

e|-------------------------------------|
B|-------------------------------------|
G|-------------------------------------|
D|---------7-7-9-7-------------------7-|
A|---7-7-7---------10-7-7-7-7--10-10---|
E|-------------------------------------|


e|------------------------------------|
B|------------------------------------|
G|------------------------------------|
D|---------7-7-9-7--------------------|
A|---7-7-7---------10-7-7-7-7--5-5-5--|
E|------------------------------------|


e|---------------------------------------|
B|---------------------------------------|
G|----------------9-9-9-9----12-12-12-12-|
D|----------7-7-7------------------------|
A|---7-7-10------------------------------|
E|---------------------------------------|


[Verse 2]

e|------------------15----------------|   
B|----13----12------------------------|  
G|------------------------------------| 
D|------------------------------------|  
A|------------------------------------|    
E|------------------------------------|(x3)  

e|-----3------------------5-----------|     
B|-----3------------------5-----------| 
G|-----4------------------6-----------|  
D|-----5------------------7-----------| 
A|-----5------------------7-----------|   
E|-----3------------------5-----------|  
  

e|------------------15----------------|   
B|----13----12------------------------|  
G|------------------------------------| 
D|------------------------------------|  
A|------------------------------------|    
E|------------------------------------|(x3)  

e|-----3------------------5-----------|     
B|-----3------------------5-----------| 
G|-----4------------------6-----------|  
D|-----5------------------7-----------| 
A|-----5------------------7-----------|   
E|-----3------------------5-----------|(x3) 

e|-----3-----------|-------5----------|     
B|-----3-----------|-------5----------|  
G|-----4-----------|-------6----------|
D|-----5-----------|-------7----------|
A|-----5-----------|-------7----------|   
E|-----3-----------|-------5----------| 
 
  
[Chorus]

e|------------------------------------|
B|------------------------------------|
G|------------------------------------|
D|---------7-7-9-7--------------------|
A|---7-7-7---------10-7-7-7-7--5-5-5--|
E|------------------------------------|


e|------------------------------------|
B|------------------------------------|
G|------------------------------------|
D|---------7-7-9-7--------------------|
A|---7-7-7---------10-7-7-7-7--5-5-5--|
E|------------------------------------|


e|------------------------------------|
B|------------------------------------|
G|------------------------------------|
D|----------7-7-7---------------------|
A|---7-7-10-------3-3-3---------------|
E|-----------------------3--3-3-------|


[Instrumental]    
          
e|----0--0--0--(0)--(0)--(0)----------|  
B|----0--0--0---12+-12+--12+----------|
G|------------------------------------|
D|------------------------------------|
A|------------------------------------|
E|------------------------------------|

            
e|----5+-0-0----(0)-(0)-(0)------------|  
B|-------0-0----12+-12+-12+------------|
G|-------------------------------------|
D|-------------------------------------|
A|-------------------------------------|
E|-------------------------------------|


[Bridge]   
       
e|----0--0--0--(0)--(0)--(0)----------|  
B|----0--0--0---12+-12+--12+----------|
G|------------------------------------|
D|------------------------------------|
A|------------------------------------|
E|------------------------------------|

              
e|----0-0-0----(0)-(0)-(0)------------|  
B|----0-0-0----12+-12+-12+------------|
G|------------------------------------|
D|------------------------------------|
A|------------------------------------|
E|------------------------------------|


[Instrumental]

e|--5---5-5---5-5---12---12-12---12-12----------|
B|--5---5-5---5-5---10---10-10---10-10----------|
G|----------------------------------------------|
D|----------------------------------------------|
A|----------------------------------------------|
E|----------------------------------------------|

e|--15--12-12-12---12-12-12-15-12-12-15-12-15-12----| 
B|--13--10-10-10---10-10-10-13-13-13-13-10-13-10----|
G|--------------------------------------------------|
D|--------------------------------------------------|
A|--------------------------------------------------|
E|--------------------------------------------------|


[Chorus]

e|--5---5-5---5-5---12---12-12---12-12----------|
B|--5---5-5---5-5---10---10-10---10-10----------|
G|----------------------------------------------|  
D|----------------------------------------------|
A|----------------------------------------------|
E|----------------------------------------------|

e|--15--12-12-12---12-12-12-15-12-12-15-12-15-12----| 
B|--13--10-10-10---10-10-10-13-13-13-13-10-13-10----|
G|--------------------------------------------------|    
D|--------------------------------------------------|
A|--------------------------------------------------|
E|--------------------------------------------------|(x5)


[End]

A5


***********************************

| +   Natural harmonic
|(n)  Ghost note

***********************************

Source : https://tabs.ultimate-guitar.com/r/red_hot_chili_peppers/otherside_tab.htm