Tablature guitare : Razorlight – America

Author
Difficulty
Capo
intermediate
7th fret
----------------------------------------------------------------------------
                             AMERICA - Razorlight
----------------------------------------------------------------------------
Tabbed by: City Fan Al

This is a great new song that I had to learn to play, however the first version of tab 
to this site was nowhere near accurate. So here is my
interpretation of the intro, I look forward to someone else working out the
rest.

Standard Tuning with a Capo 7th Fret

Chords are basically (G/A/F#m/G)

e|---------------------------------------------------------|
B|---------------------3-----------------------------------|
G|--------0---------------0-----2--2-p-0-----0-----0-------|
D|-----2------------4---------------------2----------------|
A|--3--------3-/-5-----------2------------------3----------|
E|---------------------------------------------------------|

e|---------------------------------------------------------|
B|--------1------------------3-----------0-----------------|
G|-----------0------------------0-----------2-----0-----0--|
D|-----2--------2---------4-----------0--------2-----------|
A|--3--------------3-/-5-----------2-----------------3-----|
E|---------------------------------------------------------|

e|--------3--0-----------2--------0------------------------|
B|-----1--------1-----0--------------3--0-h-1-p-0-h-1------|
G|-----------------------------------------------------0---|
D|-----------------------------0---------------------------|
A|--3--------------5--------2------------------------------|
E|---------------------------------------------------------|

e|------------------------------------2--3--0--------------|
B|---------------------------------------------------------|
G|--------0---------------0--------------------------------|
D|-----2-----2---------4-----4-----0--------------2--------|
A|--3-----------3-/-5-----------2--------------3-----------|
E|---------------------------------------------------------|


************************************

| h  Hammer-on
| p  Pull-off
| /  Slide up

************************************

try this. took some time (this is my first time i have posted any recomendations) have just tweeked it a little.

|---------------------------------------------------------|
B-|---------------------3--3--------------------------------|
G-|--------0---------------0-----2--2-p-0--0--0-----0-------|
D-|-----2------------4--------------------------------------|
A-|--3--------3-/-5-----------2------------------3----------|
E-|---------------------------------------------------------|

E-|---------------------------------------------------------|
B-|--------1-1----------------3-----------0-----------------|
G-|----------0-------------------0-----------2-----0-----0--|
D-|-----2------------------4-----------0--------------------|
A-|--3--------------3-/-5-----------2-----------------3-----|
E-|---------------------------------------------------------|

E-|--------3--0-----------2--------0------------------------|
B-|-----1-----1--0--------------------3--0-h-1-p-0-h-1------|
G-|-----------------------------------------------------0---|
D-|-----------------------------0---------------------------|
A-|--3--------------5--------2------------------------------|
E-|---------------------------------------------------------|

E-|------------------------------------2--3--0--------------|
B-|---------------------------------------------------------|
G-|--------0--0------------0--0--------------------0--------|
D-|-----2-----2---------4-----4-----0--------------2--------|
A-|--3-----------3-/-5-----------2--------------3-----------|
E-|---------------------------------------------------------|

Source 1 https://tabs.ultimate-guitar.com/r/razorlight/america_intro_tab.htm

Author
Capo
7th fret
Razorlight - America

1st guitar
Capo 7th fret
chord shapes relative to capo:
       G              A*             D              A
   e a d g b e    e a d g b e    e a d g b e    e a d g b e
   - - - - - -    - - - - - -    - - - - - -    - - - - - -
   7 7 7 7 7 7    7 7 7 7 7 7    7 7 7 7 7 7    7 7 7 7 7 7
   - - - - - -    - - - - - -    - - - - - -    - - - - - -
   x | | | 8 |    x | | | | |    | | | | | |    x x | | | |
   - - - - - -    - - - - - -    - - - - - -    - - - - - -
   x | 9 | | |    x | | | | |    | 9 | | | |    x x | 9 | 9
   - - - - - -    - - - - - -    - - - - - -    - - - - - -
   x10 | | | |    x | | |10 |   10 | | | |10    x x | |10 |
   - - - - - -    - - - - - -    - - - - - -    - - - - - -
   x | | | | |    x |11 | | |    | | | | | |    x x | | | |
   - - - - - -    - - - - - -    - - - - - -    - - - - - -
   x | | | | |    x12 | | | |    | | | | | |    x x | | | |
   - - - - - -    - - - - - -    - - - - - -    - - - - - -

[Intro/Verse]
play all parts once through for intro, then verse uses some variations but mainly the 
and second parts.

part 1
       G         A*           D              G
   e-------------------------------------------------|
   b-------------------10----------------------------|
   g--------7--------------------9p7-9p7----------7--|
   d------9---------11----11--------------7-----9----|
   a---10-----10/12-----------9--------------10------|
   e-------------------------------------------------|

part 2
       G         A*           D              G
   e-------------------------------------------------|
   b--------8----------10----------------------------|
   g------------------------------11-9--7---------7--|
   d------9---------11----11--------------7-----9----|
   a---10-----10/12-----------9-9------------10------|
   e-------------------------------------------------|

part 3
       G         A            D              G
   e--------10-7-------9-----------7-----------------|
   b----------------------10----------10---7h8-------|
   g------7---------9--------------------------------|
   d-------------7--------------------------------9--|
   a---10---------------------9-9--------------10----|
   e-------------------------------------------------|

part 4
       G         A*           D              G
   e-------------------------------9--10--7----------|
   b-------------------------------------------------|
   g--------7----------7--------------------------7--|
   d------9---------11---11---------------------9----|
   a---10-----10/12-----------9-9------------10------|
   e-------------------------------------------------|

[Chorus]
start off with picking the same chord sequence as before for the first 2 lines of 
then guitar one strums the
high chords and guitar 2 strums the chords below for the second 2 lines.

2nd guitar chords
       G              A              D
   e a d g b e    e a d g b e    e a d g b e
   - - - - - -    - - - - - -    - - - - - -
   | | | | | |    x | | | | |    x x | | | |
   - - - - - -    - - - - - -    - - - - - -
   | 2 | | | |    x | 2 2 2 |    x x | 2 | 2
   - - - - - -    - - - - - -    - - - - - -
   3 | | | | 3    x | | | | |    x x | | 3 |
   - - - - - -    - - - - - -    - - - - - -
   | | | | | |    x | | | | |    x x | | | |
   - - - - - -    - - - - - -    - - - - - -

************************************

| p  Pull-off
| /  Slide up
| h  Hammer-on

************************************

Source 2 https://tabs.ultimate-guitar.com/r/razorlight/america_tab.htm