Tablature guitare : Rammstein – Ich Will

Author
Tuning
D A D G B E
Ich Will
Artist: Rammstein
Song: Ich Will
Tabbed by: Peter (Pétur)


This is one of the BEST Rammstein song EVER!
And this tab is 100% CORRECT!!!!

(Drop D tuning)

Song played w/dist


  [Main Riff]
E|--------------------------------|----------------------------|
B|--------------------------------|----------------------------|
G|--------------------------------|----------------------------|
D|---0-----0------0-----0-----0---|---0-----0----5-5--3-3--0-0-|
A|-5-5-5-5-5----5-5-5-5-5-5-5-5---|-5-5-5-5-5----5-5--3-3--0-0-|
D|-0-0-0-0-0----0-0-0-0-0-0-0-0---|-0-0-0-0-0----5-5--3-3--0-0-|
  \                              / \                         /
   \  Repeat this part 3 times. /   \  And then play this.  /
    \__________________________/     \_____________________/


  [Riff 2]
E|--------------------------------|
B|--------------------------------|
G|--------------------------------|
D|---0-----0----------------------|
A|-5-5-5-5-5----------------------|
D|-0-0-0-0-0----------------------|

  [Riff 3]
E|--------------------------------------|
B|--------------------------------------|
G|--------------------------------------|
D|-0--------------------8-8-8-5-5-5-7-7-|
A|-0--------------------8-8-8-5-5-5-7-7-|
D|-0--------------------8-8-8-5-5-5-7-7-|
 (......Let ring.....)

E|-----------------------------------------|
B|-----------------------------------------|
G|-----------------------------------------|
D|-0--------------------8-8-8-10-10-10-7-7-|
A|-0--------------------8-8-8-10-10-10-7-7-|
D|-0--------------------8-8-8-10-10-10-7-7-|
 (......Let ring.....)


[Clean Part] (no dist)

E|-------------------------------------------------|
B|-------------------------------------------------|
G|-------------------------------------------------|
D|-----0-------0-------0-------0-------8-------8---|
A|---0---0---0---0---0---0---0---0---8---8---8---8-|
D|-0-------0-------0-------0-------8-------8-------|

E|-------------------------------------------------|
B|-------------------------------------------------|
G|-------------------------------------------------|
D|-----8---------------5-------5-------5-------5---|
A|---8---8-8-8-7-7-5-5---5---5---5---5---5---5---5-|
D|-8-------8---7---5-------5-------5-------5-------|

E|---------------------------------|
B|---------------------------------|
G|---------------------------------|
D|-----7-------7-------7-------7---|
A|---7---7---7---7---7---7---7---7-|
D|-7-------7-------7-------7-------|


[Ending] (outro)

E|------------------------------------------------------------|
B|------------------------------------------------------------|
G|------------------------------------------------------------|
D|---0-----0------0-----0-----0------0-----0----5-5--3-3--0-0-|
A|-5-5-5-5-5----5-5-5-5-5-5-5-5----5-5-5-5-5----5-5--3-3--0-0-|
D|-0-0-0-0-0----0-0-0-0-0-0-0-0----0-0-0-0-0----5-5--3-3--0-0-|
____________________________________________________________

Here you can see the riffs in a right order,
so you will get the song correct.

Main Riff,
Main Riff,
Riff 2,____x8
Riff 3,____x4
Main Riff,
Clean Part,____x2
Riff 3,____x4
Ending (outro).

https://tabs.ultimate-guitar.com/r/rammstein/ich_will_tab.htm