Tablature guitare : Rammstein – Ich Tu Dir Weh

Author
Difficulty
Tuning
novice
D A D G B E
Ich Tu Dir Weh - Rammstein


Tabbed by: Bee-Ay
Email: Leviathan_ben@hotmail.com

Tuning: Dropped D (DADGBE)


[Intro]

e|---------------|-----------------|-----------------|---------------|
B|---------------|-----------------|-----------------|---------------|
G|---------------|-----------------|-----------------|---------------|
D|---------------|-----------------|-----------------|---------------|
A|-0--0--0-0-0---|---0--0--0-0-0---|---0--0--0-0-0---|---0--0--0-0-0-|
D|-0--0--0-0-0---|---0--0--0-0-0---|---0--0--0-0-0---|---0--0--0-0-0-|

e|----------------------------------------------------|
B|----------------------------------------------------|
G|*--------------------------------------------------*|
D|*-0---0-------0---0-------0---0--------5-3-0-6-5-3-*|
A|--0-0-0-0-0-0-0-0-0-0-0-0-0-0-0-0-0-0--5-3-0-6-5-3--|
D|--0-0-0-0-0-0-0-0-0-0-0-0-0-0-0-0-0-0--5-3-0-6-5-3--|
pm    .   . . .   .   . . .   .   . . .


[Verse]

(Guitar 1: This guitar repeats this all the way to chorus)
e|--------------------------------------------------|
B|--------------------------------------------------|
G|--------------------------------------------------|
D|--------------------------------------------------|
A|--5---5-------5---5-------5---5-------5---5-------|
D|--0-0-0-0-0-0-0-0-0-0-0-0-0-0-0-0-0-0-0-0-0-0-0-0-|
pm    .   . . .   .   . . .   .   . . .   .   . . .

(Guitar 2: Makes variations)
e|--------------------------------------------------|
B|--------------------------------------------------|
G|--------------------------------------------------|
D|--------------------------------------------------| 
A|--5---5-------5---5-------5---5-------15--15--15--|
D|--0-0-0-0-0-0-0-0-0-0-0-0-0-0-0-0-0-0-0-0-0-0-0-0-|(x6)
pm    .   . . .   .   . . .   .   . . .   .   .   .

(Guitar 2)
e|--------------------------------------------------|
B|--------------------------------------------------|
G|--------------------------------------------------|
D|--------------------------------------------------|
A|--5---5-------5---5-------7---7-------7---7-------|
D|--0-0-0-0-0-0-0-0-0-0-0-0-0-0-0-0-0-0-0-0-0-0-0-0-|
pm    .   . . .   .   . . .   .   . . .   .   . . .

e|--------------------------------------------------|
B|--------------------------------------------------|
G|--------------------------------------------------|
D|--------------------------------------------------| 
A|--8---8-------8---8-------10--10------10--10------|
D|--0-0-0-0-0-0-0-0-0-0-0-0-0-0-0-0-0-0-0-0-0-0-0-0-|(x2)
pm    .   . . .   .   . . .   .   . . .   .   . . .


[Chorus]

(Guitar 1)
e|--------------------------------------------------------------------------|
B|--------------------------------------------------------------------------|
G|*-------------------------------------------------------------------------|
D|*-0---0-------0---0-------3---3-------3---3-------3---3-------3---3-------|
A|--0-0-0-0-0-0-0-0-0-0-0-0-3-3-3-3-3-3-3-3-3-3-3-3-3-3-3-3-3-3-3-3-3-3-3-3-|
D|--0-0-0-0-0-0-0-0-0-0-0-0-3-3-3-3-3-3-3-3-3-3-3-3-3-3-3-3-3-3-3-3-3-3-3-3-|
pm    .   . . .   .   . . .   .   . . .   .   . . .   .   . . .   .   . . .

e|-------------------------------------------------------------------------|
B|-------------------------------------------------------------------------|
G|-------------------------------------------------------------------------|
D|-5---5-------5---5-------8---8-------8---8-------0---0-------0---0-------|
A|-5-5-5-5-5-5-5-5-5-5-5-5-8-8-8-8-8-8-8-8-8-8-8-8-0-0-0-0-0-0-0-0-0-0-0-0-|
D|-5-5-5-5-5-5-5-5-5-5-5-5-8-8-8-8-8-8-8-8-8-8-8-8-0-0-0-0-0-0-0-0-0-0-0-0-|
pm   .   . . .   .   . . .   .   . . .   .   . . .   .   . . .   .   . . .

e|--------------------------------------------------|
B|--------------------------------------------------|
G|-------------------------------------------------*|
D|-7-7-7-7-7-7-7-7-7-7-7-7-7-7-7-7-7-7-7-7-7-7-7-7-*|
A|-7-7-7-7-7-7-7-7-7-7-7-7-7-7-7-7-7-7-7-7-7-7-7-7--|
D|-7-7-7-7-7-7-7-7-7-7-7-7-7-7-7-7-7-7-7-7-7-7-7-7--|


(Guitar 2: Makes variations.)
e|--------------------------------------------------------------------------|
B|--------------------------------------------------------------------------|
G|*-------------------------------------------------------------------------|
D|*-------------------------3---3-------3---3-------3---3-------3---3-------|
A|--5---5-------5---5-------3-3-3-3-3-3-3-3-3-3-3-3-3-3-3-3-3-3-3-3-3-3-3-3-|
D|--0-0-0-0-0-0-0-0-0-0-0-0-3-3-3-3-3-3-3-3-3-3-3-3-3-3-3-3-3-3-3-3-3-3-3-3-|
pm    .   . . .   .   . . .   .   . . .   .   . . .   .   . . .   .   . . .

e|-------------------------------------------------------------------------|
B|-------------------------------------------------------------------------|
G|-------------------------------------------------------------------------|
D|-5---5-------5---5-------8---8-------8---8-------------------------------|
A|-5-5-5-5-5-5-5-5-5-5-5-5-8-8-8-8-8-8-8-8-8-8-8-8-5---5-------5---5-------|
D|-5-5-5-5-5-5-5-5-5-5-5-5-8-8-8-8-8-8-8-8-8-8-8-8-0-0-0-0-0-0-0-0-0-0-0-0-|
pm   .   . . .   .   . . .   .   . . .   .   . . .   .   . . .   .   . . .

e|--------------------------------------------------|
B|--------------------------------------------------|
G|-------------------------------------------------*|
D|-7---7-------7---7-------7-7-7-7-7-7-7-7-7-7-7-7-*|
A|-7-7-7-7-7-7-7-7-7-7-7-7-7-7-7-7-7-7-7-7-7-7-7-7--|
D|-7-7-7-7-7-7-7-7-7-7-7-7-7-7-7-7-7-7-7-7-7-7-7-7--|
pm   .   . . .   .   . . .

https://tabs.ultimate-guitar.com/r/rammstein/ich_tu_dir_weh_tab.htm