Tablature guitare : Rammstein – Engel

[Intro]

(Played by Keyboard - transcribed for Guitar)

 |v   v   v   v   v   v   v   v   |v   v   v   v   v   v   v   v   |
e|10------------------------------|--------------------------------|
b|------------10--13----------10--|12--------------10--------------|
g|--------------------------------|------------12------------------|
D|--------------------------------|--------------------------------|
A|--------------------------------|--------------------------------|
E|--------------------------------|--------------------------------|

 |v   v   v   v   v   v   v   v   |v   v   v   v   v   v   v   v   |
e|10------------------------------|--------------------------------|
b|------------10--13----------10--|12------------------------------|
g|--------------------------------|------------12------------------|
D|--------------------------------|----------------12--------------|
A|--------------------------------|--------------------------------|
E|--------------------------------|--------------------------------|


[Main Riff]

 |v   v   v   v   v   v   v   v   |
e|--------------------------------|
b|--------------------------------|
g|5-7-----8-7-----5-7---5-7---8-7-|
D|5-7-----8-7-----5-7---5-7---8-7-|
A|3-5-x-x-6-5-x-x-3-5-x-3-5-x-6-5-|
E|--------------------------------|


[Bass Tab]:
(Played constantly over the whole song)

 |:v   v   v   v   v   v   v   v   :|rep. 3x   |v   v   v   v   v   v   v   v   |
g|:--------------------------------:|          |--------------------------------|
D|:--------------------------------:|          |--------------------------------|
A|:3-5-5-5-6-5-5-5-3-5---3-5---6-5-:|          |3-5-5-5-6-5-5-5-3-5---3-5-8-8-8-|
E|:--------------------------------:|          |--------------------------------|


[Verse]

Wer zu Lebzeit gut auf Erden
wird nach dem Tod ein Engel werden
den Blick gen Himmel fragst Du dann
warum man sie nich sehen kann


[Bridge]

Erst wenn die Wolken schlafen gehen
kann man uns am Himmel sehen
wir haben Angst und sind allein


[Chorus]

Gott weiss ich will kein Engel sein


[Verse]

Sie leben hinterm Sonnenschein
getrennt von uns unendlich weit
sie müssen sich an Sterne krallen
damit sie nicht vom Himmel fallen


[Bridge]

Erst wenn die Wolken schlafen gehen
kann man uns am Himmel sehen
wir haben Angst und sind allein


[Chorus]

Gott weiss ich will kein Engel sein


[Bridge]

Erst wenn die Wolken schlafen gehen
kann man uns am Himmel sehen
wir haben Angst und sind allein


[Chorus]

Gott weiss ich will kein Engel sein



************************************

| x  Dead note

************************************

https://tabs.ultimate-guitar.com/r/rammstein/engel_tab.htm